  0
SECTION
  2
HEADER
  9
$ACADVER
  1
AC1015
  9
$ACADMAINTVER
 70
     6
  9
$DWGCODEPAGE
  3
ANSI_1252
  9
$INSBASE
 10
0.0
 20
0.0
 30
0.0
  9
$EXTMIN
 10
0.0
 20
0.0
 30
0.0
  9
$EXTMAX
 10
415.0
 20
297.0
 30
0.0
  9
$LIMMIN
 10
0.0
 20
0.0
  9
$LIMMAX
 10
415.0
 20
297.0
  9
$ORTHOMODE
 70
     0
  9
$REGENMODE
 70
     1
  9
$FILLMODE
 70
     1
  9
$QTEXTMODE
 70
     0
  9
$MIRRTEXT
 70
     1
  9
$LTSCALE
 40
1.0
  9
$ATTMODE
 70
     1
  9
$TEXTSIZE
 40
0.2
  9
$TRACEWID
 40
0.05
  9
$TEXTSTYLE
  7
Standard
  9
$CLAYER
  8
0
  9
$CELTYPE
  6
ByLayer
  9
$CECOLOR
 62
   256
  9
$CELTSCALE
 40
1.0
  9
$DISPSILH
 70
     0
  9
$DIMSCALE
 40
1.0
  9
$DIMASZ
 40
0.18
  9
$DIMEXO
 40
0.0625
  9
$DIMDLI
 40
0.38
  9
$DIMRND
 40
0.0
  9
$DIMDLE
 40
0.0
  9
$DIMEXE
 40
0.18
  9
$DIMTP
 40
0.0
  9
$DIMTM
 40
0.0
  9
$DIMTXT
 40
0.18
  9
$DIMCEN
 40
0.09
  9
$DIMTSZ
 40
0.0
  9
$DIMTOL
 70
     0
  9
$DIMLIM
 70
     0
  9
$DIMTIH
 70
     1
  9
$DIMTOH
 70
     1
  9
$DIMSE1
 70
     0
  9
$DIMSE2
 70
     0
  9
$DIMTAD
 70
     0
  9
$DIMZIN
 70
     0
  9
$DIMBLK
  1

  9
$DIMASO
 70
     1
  9
$DIMSHO
 70
     1
  9
$DIMPOST
  1

  9
$DIMAPOST
  1

  9
$DIMALT
 70
     0
  9
$DIMALTD
 70
     2
  9
$DIMALTF
 40
25.4
  9
$DIMLFAC
 40
1.0
  9
$DIMTOFL
 70
     0
  9
$DIMTVP
 40
0.0
  9
$DIMTIX
 70
     0
  9
$DIMSOXD
 70
     0
  9
$DIMSAH
 70
     0
  9
$DIMBLK1
  1

  9
$DIMBLK2
  1

  9
$DIMSTYLE
  2
Standard
  9
$DIMCLRD
 70
     0
  9
$DIMCLRE
 70
     0
  9
$DIMCLRT
 70
     0
  9
$DIMTFAC
 40
1.0
  9
$DIMGAP
 40
0.09
  9
$DIMJUST
 70
     0
  9
$DIMSD1
 70
     0
  9
$DIMSD2
 70
     0
  9
$DIMTOLJ
 70
     1
  9
$DIMTZIN
 70
     0
  9
$DIMALTZ
 70
     0
  9
$DIMALTTZ
 70
     0
  9
$DIMUPT
 70
     0
  9
$DIMDEC
 70
     4
  9
$DIMTDEC
 70
     4
  9
$DIMALTU
 70
     2
  9
$DIMALTTD
 70
     2
  9
$DIMTXSTY
  7
Standard
  9
$DIMAUNIT
 70
     0
  9
$DIMADEC
 70
     0
  9
$DIMALTRND
 40
0.0
  9
$DIMAZIN
 70
     0
  9
$DIMDSEP
 70
    46
  9
$DIMATFIT
 70
     3
  9
$DIMFRAC
 70
     0
  9
$DIMLDRBLK
  1

  9
$DIMLUNIT
 70
     2
  9
$DIMLWD
 70
    -2
  9
$DIMLWE
 70
    -2
  9
$DIMTMOVE
 70
     0
  9
$LUNITS
 70
     2
  9
$LUPREC
 70
     4
  9
$SKETCHINC
 40
0.1
  9
$FILLETRAD
 40
0.5
  9
$AUNITS
 70
     0
  9
$AUPREC
 70
     0
  9
$MENU
  1
.
  9
$ELEVATION
 40
0.0
  9
$PELEVATION
 40
0.0
  9
$THICKNESS
 40
0.0
  9
$LIMCHECK
 70
     0
  9
$CHAMFERA
 40
0.0
  9
$CHAMFERB
 40
0.0
  9
$CHAMFERC
 40
0.0
  9
$CHAMFERD
 40
0.0
  9
$SKPOLY
 70
     0
  9
$TDCREATE
 40
2459534.441465394
  9
$TDUCREATE
 40
2459534.399798727
  9
$TDUPDATE
 40
2459534.441475405
  9
$TDUUPDATE
 40
2459534.399808738
  9
$TDINDWG
 40
0.0000000116
  9
$TDUSRTIMER
 40
0.0000000116
  9
$USRTIMER
 70
     1
  9
$ANGBASE
 50
0.0
  9
$ANGDIR
 70
     0
  9
$PDMODE
 70
     0
  9
$PDSIZE
 40
0.0
  9
$PLINEWID
 40
0.0
  9
$SPLFRAME
 70
     0
  9
$SPLINETYPE
 70
     6
  9
$SPLINESEGS
 70
     8
  9
$HANDSEED
  5
2CE
  9
$SURFTAB1
 70
     6
  9
$SURFTAB2
 70
     6
  9
$SURFTYPE
 70
     6
  9
$SURFU
 70
     6
  9
$SURFV
 70
     6
  9
$UCSBASE
  2

  9
$UCSNAME
  2

  9
$UCSORG
 10
0.0
 20
0.0
 30
0.0
  9
$UCSXDIR
 10
1.0
 20
0.0
 30
0.0
  9
$UCSYDIR
 10
0.0
 20
1.0
 30
0.0
  9
$UCSORTHOREF
  2

  9
$UCSORTHOVIEW
 70
     0
  9
$UCSORGTOP
 10
0.0
 20
0.0
 30
0.0
  9
$UCSORGBOTTOM
 10
0.0
 20
0.0
 30
0.0
  9
$UCSORGLEFT
 10
0.0
 20
0.0
 30
0.0
  9
$UCSORGRIGHT
 10
0.0
 20
0.0
 30
0.0
  9
$UCSORGFRONT
 10
0.0
 20
0.0
 30
0.0
  9
$UCSORGBACK
 10
0.0
 20
0.0
 30
0.0
  9
$PUCSBASE
  2

  9
$PUCSNAME
  2

  9
$PUCSORG
 10
0.0
 20
0.0
 30
0.0
  9
$PUCSXDIR
 10
1.0
 20
0.0
 30
0.0
  9
$PUCSYDIR
 10
0.0
 20
1.0
 30
0.0
  9
$PUCSORTHOREF
  2

  9
$PUCSORTHOVIEW
 70
     0
  9
$PUCSORGTOP
 10
0.0
 20
0.0
 30
0.0
  9
$PUCSORGBOTTOM
 10
0.0
 20
0.0
 30
0.0
  9
$PUCSORGLEFT
 10
0.0
 20
0.0
 30
0.0
  9
$PUCSORGRIGHT
 10
0.0
 20
0.0
 30
0.0
  9
$PUCSORGFRONT
 10
0.0
 20
0.0
 30
0.0
  9
$PUCSORGBACK
 10
0.0
 20
0.0
 30
0.0
  9
$USERI1
 70
     0
  9
$USERI2
 70
     0
  9
$USERI3
 70
     0
  9
$USERI4
 70
     0
  9
$USERI5
 70
     0
  9
$USERR1
 40
0.0
  9
$USERR2
 40
0.0
  9
$USERR3
 40
0.0
  9
$USERR4
 40
0.0
  9
$USERR5
 40
0.0
  9
$WORLDVIEW
 70
     1
  9
$SHADEDGE
 70
     3
  9
$SHADEDIF
 70
    70
  9
$TILEMODE
 70
     1
  9
$MAXACTVP
 70
    64
  9
$PINSBASE
 10
0.0
 20
0.0
 30
0.0
  9
$PLIMCHECK
 70
     0
  9
$PEXTMIN
 10
0.0
 20
0.0
 30
0.0
  9
$PEXTMAX
 10
415.0
 20
297.0
 30
0.0
  9
$PLIMMIN
 10
0.0
 20
0.0
  9
$PLIMMAX
 10
415.0
 20
297.0
  9
$UNITMODE
 70
     0
  9
$VISRETAIN
 70
     1
  9
$PLINEGEN
 70
     0
  9
$PSLTSCALE
 70
     1
  9
$TREEDEPTH
 70
  3020
  9
$CMLSTYLE
  2
Standard
  9
$CMLJUST
 70
     0
  9
$CMLSCALE
 40
1.0
  9
$PROXYGRAPHICS
 70
     1
  9
$MEASUREMENT
 70
     0
  9
$CELWEIGHT
370
    -1
  9
$ENDCAPS
280
     0
  9
$JOINSTYLE
280
     0
  9
$LWDISPLAY
290
     0
  9
$INSUNITS
 70
     0
  9
$HYPERLINKBASE
  1

  9
$STYLESHEET
  1

  9
$XEDIT
290
     1
  9
$CEPSNTYPE
380
     0
  9
$PSTYLEMODE
290
     1
  9
$FINGERPRINTGUID
  2
{D4E714BE-AD0F-44DE-BBC0-F15B707792F1}
  9
$VERSIONGUID
  2
{FAEB1C32-E019-11D5-929B-00C0DF256EC4}
  9
$EXTNAMES
290
     1
  9
$PSVPSCALE
 40
0.0
  9
$OLESTARTUP
290
     0
  0
ENDSEC
  0
SECTION
  2
CLASSES
  0
CLASS
  1
ACDBDICTIONARYWDFLT
  2
AcDbDictionaryWithDefault
  3
ObjectDBX Classes
 90
        0
280
     0
281
     0
  0
CLASS
  1
VISUALSTYLE
  2
AcDbVisualStyle
  3
ObjectDBX Classes
 90
     4095
280
     0
281
     0
  0
CLASS
  1
MATERIAL
  2
AcDbMaterial
  3
ObjectDBX Classes
 90
     1153
280
     0
281
     0
  0
CLASS
  1
SCALE
  2
AcDbScale
  3
ObjectDBX Classes
 90
     1153
280
     0
281
     0
  0
CLASS
  1
TABLESTYLE
  2
AcDbTableStyle
  3
ObjectDBX Classes
 90
     4095
280
     0
281
     0
  0
CLASS
  1
MLEADERSTYLE
  2
AcDbMLeaderStyle
  3
ACDB_MLEADERSTYLE_CLASS
 90
     4095
280
     0
281
     0
  0
CLASS
  1
SUN
  2
AcDbSun
  3
SCENEOE
 90
     1153
280
     0
281
     0
  0
CLASS
  1
IMAGEDEF
  2
AcDbRasterImageDef
  3
ISM
 90
        0
280
     0
281
     0
  0
CLASS
  1
RASTERVARIABLES
  2
AcDbRasterVariables
  3
ISM
 90
        0
280
     0
281
     0
  0
CLASS
  1
IMAGE
  2
AcDbRasterImage
  3
ISM
 90
      127
280
     0
281
     1
  0
CLASS
  1
IMAGEDEF_REACTOR
  2
AcDbRasterImageDefReactor
  3
ISM
 90
        1
280
     0
281
     0
  0
CLASS
  1
DICTIONARYVAR
  2
AcDbDictionaryVar
  3
ObjectDBX Classes
 90
        0
280
     0
281
     0
  0
CLASS
  1
ACDBPLACEHOLDER
  2
AcDbPlaceHolder
  3
ObjectDBX Classes
 90
        0
280
     0
281
     0
  0
CLASS
  1
LAYOUT
  2
AcDbLayout
  3
ObjectDBX Classes
 90
        0
280
     0
281
     0
  0
ENDSEC
  0
SECTION
  2
TABLES
  0
TABLE
  2
VPORT
  5
8
102
{ACAD_XDICTIONARY
360
291
102
}
330
0
100
AcDbSymbolTable
 70
     1
  0
VPORT
  5
29
330
8
100
AcDbSymbolTableRecord
100
AcDbViewportTableRecord
  2
*Active
 70
     0
 10
0.0
 20
0.0
 11
1.0
 21
1.0
 12
207.5
 22
148.5
 13
0.0
 23
0.0
 14
0.5
 24
0.5
 15
0.5
 25
0.5
 16
0.0
 26
0.0
 36
1.0
 17
0.0
 27
0.0
 37
0.0
 40
297.0
 41
1.397306397306397
 42
50.0
 43
0.0
 44
0.0
 50
0.0
 51
0.0
 71
     0
 72
   100
 73
     1
 74
     3
 75
     0
 76
     0
 77
     0
 78
     0
281
     0
 65
     1
110
0.0
120
0.0
130
0.0
111
1.0
121
0.0
131
0.0
112
0.0
122
1.0
132
0.0
 79
     0
146
0.0
  0
ENDTAB
  0
TABLE
  2
LTYPE
  5
5
330
0
100
AcDbSymbolTable
 70
    43
  0
LTYPE
  5
14
330
5
100
AcDbSymbolTableRecord
100
AcDbLinetypeTableRecord
  2
ByBlock
 70
     0
  3

 72
    65
 73
     0
 40
0.0
  0
LTYPE
  5
15
330
5
100
AcDbSymbolTableRecord
100
AcDbLinetypeTableRecord
  2
ByLayer
 70
     0
  3

 72
    65
 73
     0
 40
0.0
  0
LTYPE
  5
16
330
5
100
AcDbSymbolTableRecord
100
AcDbLinetypeTableRecord
  2
Continuous
 70
     0
  3
Solid line
 72
    65
 73
     0
 40
0.0
  0
LTYPE
  5
6E
330
5
100
AcDbSymbolTableRecord
100
AcDbLinetypeTableRecord
  2
Fin
 70
     0
  3
_______________________________
 72
    65
 73
     0
 40
0.0
  0
LTYPE
  5
6F
330
5
100
AcDbSymbolTableRecord
100
AcDbLinetypeTableRecord
  2
Moyen
 70
     0
  3
_______________________________
 72
    65
 73
     0
 40
0.0
  0
LTYPE
  5
70
330
5
100
AcDbSymbolTableRecord
100
AcDbLinetypeTableRecord
  2
Epais
 70
     0
  3
_______________________________
 72
    65
 73
     0
 40
0.0
  0
LTYPE
  5
71
330
5
100
AcDbSymbolTableRecord
100
AcDbLinetypeTableRecord
  2
Tiret
 70
     0
  3
____    ____    ____    ____   
 72
    65
 73
     4
 40
16.0
 49
4.0
 74
     0
 49
-4.0
 74
     0
 49
4.0
 74
     0
 49
-4.0
 74
     0
  0
LTYPE
  5
72
330
5
100
AcDbSymbolTableRecord
100
AcDbLinetypeTableRecord
  2
Point
 70
     0
  3
_ _ _ _ _ _ _ _ _ _ _ _ _ _ _ _
 72
    65
 73
     8
 40
8.0
 49
1.0
 74
     0
 49
-1.0
 74
     0
 49
1.0
 74
     0
 49
-1.0
 74
     0
 49
1.0
 74
     0
 49
-1.0
 74
     0
 49
1.0
 74
     0
 49
-1.0
 74
     0
  0
LTYPE
  5
73
330
5
100
AcDbSymbolTableRecord
100
AcDbLinetypeTableRecord
  2
Axes
 70
     0
  3
_______   _     _______   _    
 72
    65
 73
     4
 40
16.0
 49
7.0
 74
     0
 49
-3.0
 74
     0
 49
1.0
 74
     0
 49
-5.0
 74
     0
  0
LTYPE
  5
74
330
5
100
AcDbSymbolTableRecord
100
AcDbLinetypeTableRecord
  2
AxesDble
 70
     0
  3
_____   _   _   _____   _   _  
 72
    65
 73
     6
 40
16.0
 49
5.0
 74
     0
 49
-3.0
 74
     0
 49
1.0
 74
     0
 49
-3.0
 74
     0
 49
1.0
 74
     0
 49
-3.0
 74
     0
  0
LTYPE
  5
75
330
5
100
AcDbSymbolTableRecord
100
AcDbLinetypeTableRecord
  2
Bleu
 70
     0
  3
_______________________________
 72
    65
 73
     0
 40
0.0
  0
LTYPE
  5
76
330
5
100
AcDbSymbolTableRecord
100
AcDbLinetypeTableRecord
  2
Vert
 70
     0
  3
_______________________________
 72
    65
 73
     0
 40
0.0
  0
LTYPE
  5
77
330
5
100
AcDbSymbolTableRecord
100
AcDbLinetypeTableRecord
  2
Cyan
 70
     0
  3
_______________________________
 72
    65
 73
     0
 40
0.0
  0
LTYPE
  5
78
330
5
100
AcDbSymbolTableRecord
100
AcDbLinetypeTableRecord
  2
Rouge
 70
     0
  3
_______________________________
 72
    65
 73
     0
 40
0.0
  0
LTYPE
  5
79
330
5
100
AcDbSymbolTableRecord
100
AcDbLinetypeTableRecord
  2
Violet
 70
     0
  3
_______________________________
 72
    65
 73
     0
 40
0.0
  0
LTYPE
  5
7A
330
5
100
AcDbSymbolTableRecord
100
AcDbLinetypeTableRecord
  2
Jaune
 70
     0
  3
_______________________________
 72
    65
 73
     0
 40
0.0
  0
LTYPE
  5
7B
330
5
100
AcDbSymbolTableRecord
100
AcDbLinetypeTableRecord
  2
Noir
 70
     0
  3
_______________________________
 72
    65
 73
     0
 40
0.0
  0
LTYPE
  5
7C
330
5
100
AcDbSymbolTableRecord
100
AcDbLinetypeTableRecord
  2
Blanc
 70
     0
  3
_______________________________
 72
    65
 73
     0
 40
0.0
  0
LTYPE
  5
7D
330
5
100
AcDbSymbolTableRecord
100
AcDbLinetypeTableRecord
  2
Orange
 70
     0
  3
_______________________________
 72
    65
 73
     0
 40
0.0
  0
LTYPE
  5
7E
330
5
100
AcDbSymbolTableRecord
100
AcDbLinetypeTableRecord
  2
Brun
 70
     0
  3
_______________________________
 72
    65
 73
     0
 40
0.0
  0
LTYPE
  5
7F
330
5
100
AcDbSymbolTableRecord
100
AcDbLinetypeTableRecord
  2
Gris
 70
     0
  3
_______________________________
 72
    65
 73
     0
 40
0.0
  0
LTYPE
  5
80
330
5
100
AcDbSymbolTableRecord
100
AcDbLinetypeTableRecord
  2
Symbol_C
 70
     0
  3
_______________________________
 72
    65
 73
     0
 40
0.0
  0
LTYPE
  5
81
330
5
100
AcDbSymbolTableRecord
100
AcDbLinetypeTableRecord
  2
Symbol_P
 70
     0
  3
_______________________________
 72
    65
 73
     0
 40
0.0
  0
LTYPE
  5
82
330
5
100
AcDbSymbolTableRecord
100
AcDbLinetypeTableRecord
  2
LINE
 70
     0
  3
_______________________________
 72
    65
 73
     0
 40
0.0
  0
LTYPE
  5
83
330
5
100
AcDbSymbolTableRecord
100
AcDbLinetypeTableRecord
  2
LINE_1
 70
     0
  3
_______________________________
 72
    65
 73
     0
 40
0.0
  0
LTYPE
  5
84
330
5
100
AcDbSymbolTableRecord
100
AcDbLinetypeTableRecord
  2
LINE_2
 70
     0
  3
_______________________________
 72
    65
 73
     0
 40
0.0
  0
LTYPE
  5
85
330
5
100
AcDbSymbolTableRecord
100
AcDbLinetypeTableRecord
  2
LINE_3
 70
     0
  3
_______________________________
 72
    65
 73
     0
 40
0.0
  0
LTYPE
  5
86
330
5
100
AcDbSymbolTableRecord
100
AcDbLinetypeTableRecord
  2
LINE_4
 70
     0
  3
_______________________________
 72
    65
 73
     0
 40
0.0
  0
LTYPE
  5
87
330
5
100
AcDbSymbolTableRecord
100
AcDbLinetypeTableRecord
  2
LINE_5
 70
     0
  3
_______________________________
 72
    65
 73
     0
 40
0.0
  0
LTYPE
  5
88
330
5
100
AcDbSymbolTableRecord
100
AcDbLinetypeTableRecord
  2
LINE_6
 70
     0
  3
_______________________________
 72
    65
 73
     0
 40
0.0
  0
LTYPE
  5
89
330
5
100
AcDbSymbolTableRecord
100
AcDbLinetypeTableRecord
  2
LINE_7
 70
     0
  3
_______________________________
 72
    65
 73
     0
 40
0.0
  0
LTYPE
  5
8A
330
5
100
AcDbSymbolTableRecord
100
AcDbLinetypeTableRecord
  2
LINE_8
 70
     0
  3
_______________________________
 72
    65
 73
     0
 40
0.0
  0
LTYPE
  5
8B
330
5
100
AcDbSymbolTableRecord
100
AcDbLinetypeTableRecord
  2
LINE_9
 70
     0
  3
_______________________________
 72
    65
 73
     0
 40
0.0
  0
LTYPE
  5
8C
330
5
100
AcDbSymbolTableRecord
100
AcDbLinetypeTableRecord
  2
LINE_10
 70
     0
  3
_______________________________
 72
    65
 73
     0
 40
0.0
  0
LTYPE
  5
8D
330
5
100
AcDbSymbolTableRecord
100
AcDbLinetypeTableRecord
  2
LINE_11
 70
     0
  3
_______________________________
 72
    65
 73
     0
 40
0.0
  0
LTYPE
  5
8E
330
5
100
AcDbSymbolTableRecord
100
AcDbLinetypeTableRecord
  2
LINE_12
 70
     0
  3
_______________________________
 72
    65
 73
     0
 40
0.0
  0
LTYPE
  5
8F
330
5
100
AcDbSymbolTableRecord
100
AcDbLinetypeTableRecord
  2
LINE_13
 70
     0
  3
_______________________________
 72
    65
 73
     0
 40
0.0
  0
LTYPE
  5
90
330
5
100
AcDbSymbolTableRecord
100
AcDbLinetypeTableRecord
  2
LINE_14
 70
     0
  3
_______________________________
 72
    65
 73
     0
 40
0.0
  0
LTYPE
  5
91
330
5
100
AcDbSymbolTableRecord
100
AcDbLinetypeTableRecord
  2
LINE_15
 70
     0
  3
_______________________________
 72
    65
 73
     0
 40
0.0
  0
LTYPE
  5
92
330
5
100
AcDbSymbolTableRecord
100
AcDbLinetypeTableRecord
  2
LINE_16
 70
     0
  3
_______________________________
 72
    65
 73
     0
 40
0.0
  0
LTYPE
  5
93
330
5
100
AcDbSymbolTableRecord
100
AcDbLinetypeTableRecord
  2
LINE_17
 70
     0
  3
_______________________________
 72
    65
 73
     0
 40
0.0
  0
LTYPE
  5
94
330
5
100
AcDbSymbolTableRecord
100
AcDbLinetypeTableRecord
  2
LINE_18
 70
     0
  3
_______________________________
 72
    65
 73
     0
 40
0.0
  0
LTYPE
  5
95
330
5
100
AcDbSymbolTableRecord
100
AcDbLinetypeTableRecord
  2
Invisible
 70
     0
  3
_______________________________
 72
    65
 73
     0
 40
0.0
  0
LTYPE
  5
96
330
5
100
AcDbSymbolTableRecord
100
AcDbLinetypeTableRecord
  2
LINE_19
 70
     0
  3
_______________________________
 72
    65
 73
     0
 40
0.0
  0
LTYPE
  5
97
330
5
100
AcDbSymbolTableRecord
100
AcDbLinetypeTableRecord
  2
LINE_20
 70
     0
  3
_______________________________
 72
    65
 73
     0
 40
0.0
  0
ENDTAB
  0
TABLE
  2
LAYER
  5
2
330
0
100
AcDbSymbolTable
 70
     4
  0
LAYER
  5
10
330
2
100
AcDbSymbolTableRecord
100
AcDbLayerTableRecord
  2
0
 70
     0
 62
     7
  6
Continuous
370
    -3
390
F
  0
LAYER
  5
99
330
2
100
AcDbSymbolTableRecord
100
AcDbLayerTableRecord
  2
DEFAULT
 70
     0
 62
     4
  6
Continuous
370
    -3
390
F
  0
LAYER
  5
9C
330
2
100
AcDbSymbolTableRecord
100
AcDbLayerTableRecord
  2
A
 70
     0
 62
     1
  6
Continuous
370
    -3
390
F
  0
LAYER
  5
127
330
2
100
AcDbSymbolTableRecord
100
AcDbLayerTableRecord
  2
B
 70
     0
 62
     1
  6
Continuous
370
    -3
390
F
  0
ENDTAB
  0
TABLE
  2
STYLE
  5
3
330
0
100
AcDbSymbolTable
 70
     3
  0
STYLE
  5
11
330
3
100
AcDbSymbolTableRecord
100
AcDbTextStyleTableRecord
  2
Standard
 70
     0
 40
0.0
 41
1.0
 50
0.0
 71
     0
 42
0.2
  3
txt
  4

  0
STYLE
  5
F3
330
3
100
AcDbSymbolTableRecord
100
AcDbTextStyleTableRecord
  2
Arial
 70
     0
 40
2.260416666666667
 41
0.9659999561309813
 50
0.0
 71
     0
 42
0.2
  3
arial.ttf
  4

1001
ACAD
1000
Arial
1071
       34
  0
STYLE
  5
145
330
3
100
AcDbSymbolTableRecord
100
AcDbTextStyleTableRecord
  2
Arial_BOLD
 70
     0
 40
2.90625
 41
1.207499945163727
 50
0.0
 71
     0
 42
0.2
  3
arialbd.ttf
  4

1001
ACAD
1000
Arial
1071
 33554466
  0
ENDTAB
  0
TABLE
  2
VIEW
  5
6
330
0
100
AcDbSymbolTable
 70
     1
  0
VIEW
  5
98
330
6
100
AcDbSymbolTableRecord
100
AcDbViewTableRecord
  2
VIEW
 70
     0
 40
1.0
 10
0.0
 20
0.0
 41
1.0
 11
0.0
 21
0.0
 31
1.0
 12
0.0
 22
0.0
 32
0.0
 42
50.0
 43
0.0
 44
0.0
 50
0.0
 71
     0
281
     0
 72
     0
  0
ENDTAB
  0
TABLE
  2
UCS
  5
7
330
0
100
AcDbSymbolTable
 70
     0
  0
ENDTAB
  0
TABLE
  2
APPID
  5
9
330
0
100
AcDbSymbolTable
 70
     2
  0
APPID
  5
12
330
9
100
AcDbSymbolTableRecord
100
AcDbRegAppTableRecord
  2
ACAD
 70
     0
  0
APPID
  5
2CB
330
9
100
AcDbSymbolTableRecord
100
AcDbRegAppTableRecord
  2
ACAD_MLEADERVER
 70
     0
  0
ENDTAB
  0
TABLE
  2
DIMSTYLE
  5
A
330
0
100
AcDbSymbolTable
 70
     1
100
AcDbDimStyleTable
  0
DIMSTYLE
105
27
330
A
100
AcDbSymbolTableRecord
100
AcDbDimStyleTableRecord
  2
Standard
 70
     0
178
     0
340
11
  0
ENDTAB
  0
TABLE
  2
BLOCK_RECORD
  5
1
330
0
100
AcDbSymbolTable
 70
     6
  0
BLOCK_RECORD
  5
1F
330
1
100
AcDbSymbolTableRecord
100
AcDbBlockTableRecord
  2
*Model_Space
340
22
  0
BLOCK_RECORD
  5
1B
330
1
100
AcDbSymbolTableRecord
100
AcDbBlockTableRecord
  2
*Paper_Space
340
1E
  0
BLOCK_RECORD
  5
23
330
1
100
AcDbSymbolTableRecord
100
AcDbBlockTableRecord
  2
*Paper_Space0
340
26
  0
BLOCK_RECORD
  5
9A
330
1
100
AcDbSymbolTableRecord
100
AcDbBlockTableRecord
  2
1
340
0
102
{BLKREFS
331
125
102
}
  0
BLOCK_RECORD
  5
14E
330
1
100
AcDbSymbolTableRecord
100
AcDbBlockTableRecord
  2
_FX_VARIATEUR_0_5_0
340
0
102
{BLKREFS
331
202
102
}
  0
BLOCK_RECORD
  5
238
330
1
100
AcDbSymbolTableRecord
100
AcDbBlockTableRecord
  2
CONSOLE_IHM_C_CONSOLE_0_5_0
340
0
102
{BLKREFS
331
26B
102
}
  0
BLOCK_RECORD
  5
272
330
1
100
AcDbSymbolTableRecord
100
AcDbBlockTableRecord
  2
048C0_003_0_5_0
340
0
102
{BLKREFS
331
27D
102
}
  0
BLOCK_RECORD
  5
280
330
1
100
AcDbSymbolTableRecord
100
AcDbBlockTableRecord
  2
Assoc_1
340
0
102
{BLKREFS
331
283
102
}
  0
ENDTAB
  0
ENDSEC
  0
SECTION
  2
BLOCKS
  0
BLOCK
  5
20
330
1F
100
AcDbEntity
  8
0
100
AcDbBlockBegin
  2
*Model_Space
 70
     0
 10
0.0
 20
0.0
 30
0.0
  3
*Model_Space
  1

  0
ENDBLK
  5
21
330
1F
100
AcDbEntity
  8
0
100
AcDbBlockEnd
  0
BLOCK
  5
1C
330
1B
100
AcDbEntity
 67
     1
  8
0
100
AcDbBlockBegin
  2
*Paper_Space
 70
     0
 10
0.0
 20
0.0
 30
0.0
  3
*Paper_Space
  1

  0
ENDBLK
  5
1D
330
1B
100
AcDbEntity
 67
     1
  8
0
100
AcDbBlockEnd
  0
BLOCK
  5
24
330
23
100
AcDbEntity
  8
0
100
AcDbBlockBegin
  2
*Paper_Space0
 70
     0
 10
0.0
 20
0.0
 30
0.0
  3
*Paper_Space0
  1

  0
ENDBLK
  5
25
330
23
100
AcDbEntity
  8
0
100
AcDbBlockEnd
  0
BLOCK
  5
123
330
9A
100
AcDbEntity
  8
0
100
AcDbBlockBegin
  2
1
 70
     2
 10
0.0
 20
0.0
 30
0.0
  3
1
  1

  0
LINE
  5
9B
330
9A
100
AcDbEntity
  8
A
  6
Moyen
 62
     4
370
    25
100
AcDbLine
 10
0.0
 20
20.0
 30
0.0
 11
420.0
 21
20.0
 31
0.0
  0
LINE
  5
9D
330
9A
100
AcDbEntity
  8
A
  6
Moyen
 62
     4
370
    25
100
AcDbLine
 10
275.0
 20
0.0
 30
0.0
 11
275.0
 21
20.0
 31
0.0
  0
LINE
  5
9E
330
9A
100
AcDbEntity
  8
A
  6
Moyen
 62
     4
370
    25
100
AcDbLine
 10
395.0
 20
0.0
 30
0.0
 11
395.0
 21
20.0
 31
0.0
  0
LINE
  5
9F
330
9A
100
AcDbEntity
  8
A
  6
Moyen
 62
     4
370
    25
100
AcDbLine
 10
275.0
 20
8.0
 30
0.0
 11
190.0
 21
8.0
 31
0.0
  0
LINE
  5
A0
330
9A
100
AcDbEntity
  8
A
  6
Moyen
 62
     4
370
    25
100
AcDbLine
 10
70.0
 20
0.0
 30
0.0
 11
70.0
 21
20.0
 31
0.0
  0
LINE
  5
A1
330
9A
100
AcDbEntity
  8
A
  6
Moyen
 62
     4
370
    25
100
AcDbLine
 10
70.0
 20
6.750000476837158
 30
0.0
 11
110.0
 21
6.750000476837158
 31
0.0
  0
LINE
  5
A2
330
9A
100
AcDbEntity
  8
A
  6
Moyen
 62
     4
370
    25
100
AcDbLine
 10
110.0
 20
13.35000038146973
 30
0.0
 11
70.0
 21
13.35000038146973
 31
0.0
  0
LINE
  5
A3
330
9A
100
AcDbEntity
  8
A
  6
Moyen
 62
     4
370
    25
100
AcDbLine
 10
190.0
 20
20.0
 30
0.0
 11
190.0
 21
0.0
 31
0.0
  0
LINE
  5
A4
330
9A
100
AcDbEntity
  8
A
  6
Moyen
 62
     4
370
    25
100
AcDbLine
 10
110.0
 20
0.0
 30
0.0
 11
110.0
 21
20.0
 31
0.0
  0
LINE
  5
A5
330
9A
100
AcDbEntity
  8
A
  6
Moyen
 62
     4
370
    25
100
AcDbLine
 10
110.0
 20
16.0
 30
0.0
 11
190.0
 21
16.0
 31
0.0
  0
LINE
  5
A6
330
9A
100
AcDbEntity
  8
A
  6
Moyen
 62
     4
370
    25
100
AcDbLine
 10
110.0
 20
12.0
 30
0.0
 11
190.0
 21
12.0
 31
0.0
  0
LINE
  5
A7
330
9A
100
AcDbEntity
  8
A
  6
Moyen
 62
     4
370
    25
100
AcDbLine
 10
110.0
 20
8.0
 30
0.0
 11
190.0
 21
8.0
 31
0.0
  0
LINE
  5
A8
330
9A
100
AcDbEntity
  8
A
  6
Moyen
 62
     4
370
    25
100
AcDbLine
 10
110.0
 20
4.0
 30
0.0
 11
190.0
 21
4.0
 31
0.0
  0
LINE
  5
A9
330
9A
100
AcDbEntity
  8
A
  6
Moyen
 62
     4
370
    25
100
AcDbLine
 10
118.0
 20
0.0
 30
0.0
 11
118.0
 21
20.0
 31
0.0
  0
LINE
  5
AA
330
9A
100
AcDbEntity
  8
A
  6
Moyen
 62
     4
370
    25
100
AcDbLine
 10
132.0
 20
0.0
 30
0.0
 11
132.0
 21
20.0
 31
0.0
  0
LINE
  5
AB
330
9A
100
AcDbEntity
  8
A
  6
Moyen
 62
     4
370
    25
100
AcDbLine
 10
180.0
 20
0.0
 30
0.0
 11
180.0
 21
20.0
 31
0.0
  0
POLYLINE
  5
AC
330
9A
100
AcDbEntity
  8
A
  6
Moyen
 62
     4
370
    25
100
AcDb2dPolyline
 66
     1
 10
0.0
 20
0.0
 30
0.0
  0
VERTEX
  5
AD
330
AC
100
AcDbEntity
  8
A
  6
Moyen
 62
     4
100
AcDbVertex
100
AcDb2dVertex
 10
398.0
 20
6.0
 30
0.0
  0
VERTEX
  5
AE
330
AC
100
AcDbEntity
  8
A
  6
Moyen
 62
     4
100
AcDbVertex
100
AcDb2dVertex
 10
398.0
 20
8.0
 30
0.0
  0
VERTEX
  5
AF
330
AC
100
AcDbEntity
  8
A
  6
Moyen
 62
     4
100
AcDbVertex
100
AcDb2dVertex
 10
396.0
 20
7.0
 30
0.0
  0
VERTEX
  5
B0
330
AC
100
AcDbEntity
  8
A
  6
Moyen
 62
     4
100
AcDbVertex
100
AcDb2dVertex
 10
398.0
 20
6.0
 30
0.0
  0
SEQEND
  5
B1
330
AC
100
AcDbEntity
  8
A
  6
Moyen
 62
     4
370
    25
  0
HATCH
  5
B2
330
9A
100
AcDbEntity
  8
A
  6
Moyen
 62
     4
100
AcDbHatch
 10
0.0
 20
0.0
 30
0.0
210
0.0
220
0.0
230
1.0
  2
SOLID
 70
     1
 71
     0
 91
        1
 92
        0
 93
        3
 72
     1
 10
398.0
 20
6.0
 11
398.0
 21
8.0
 72
     1
 10
398.0
 20
8.0
 11
396.0
 21
7.0
 72
     1
 10
396.0
 20
7.0
 11
398.0
 21
6.0
 97
        0
 75
     0
 76
     1
 98
        0
  0
POLYLINE
  5
B3
330
9A
100
AcDbEntity
  8
A
  6
Moyen
 62
     4
370
    25
100
AcDb2dPolyline
 66
     1
 10
0.0
 20
0.0
 30
0.0
  0
VERTEX
  5
B4
330
B3
100
AcDbEntity
  8
A
  6
Moyen
 62
     4
100
AcDbVertex
100
AcDb2dVertex
 10
419.0
 20
7.0
 30
0.0
  0
VERTEX
  5
B5
330
B3
100
AcDbEntity
  8
A
  6
Moyen
 62
     4
100
AcDbVertex
100
AcDb2dVertex
 10
417.0
 20
8.0
 30
0.0
  0
VERTEX
  5
B6
330
B3
100
AcDbEntity
  8
A
  6
Moyen
 62
     4
100
AcDbVertex
100
AcDb2dVertex
 10
417.0
 20
6.0
 30
0.0
  0
VERTEX
  5
B7
330
B3
100
AcDbEntity
  8
A
  6
Moyen
 62
     4
100
AcDbVertex
100
AcDb2dVertex
 10
419.0
 20
7.0
 30
0.0
  0
SEQEND
  5
B8
330
B3
100
AcDbEntity
  8
A
  6
Moyen
 62
     4
370
    25
  0
HATCH
  5
B9
330
9A
100
AcDbEntity
  8
A
  6
Moyen
 62
     4
100
AcDbHatch
 10
0.0
 20
0.0
 30
0.0
210
0.0
220
0.0
230
1.0
  2
SOLID
 70
     1
 71
     0
 91
        1
 92
        0
 93
        3
 72
     1
 10
419.0
 20
7.0
 11
417.0
 21
8.0
 72
     1
 10
417.0
 20
8.0
 11
417.0
 21
6.0
 72
     1
 10
417.0
 20
6.0
 11
419.0
 21
7.0
 97
        0
 75
     0
 76
     1
 98
        0
  0
LINE
  5
BA
330
9A
100
AcDbEntity
  8
A
  6
Moyen
 62
     4
370
    25
100
AcDbLine
 10
395.0
 20
4.0
 30
0.0
 11
420.0
 21
4.0
 31
0.0
  0
ATTDEF
  5
BB
330
9A
100
AcDbEntity
  8
A
  6
Fin
 62
     1
370
    15
100
AcDbText
 10
192.1387023925781
 20
2.775197347005208
 30
0.0
 40
2.583333333333333
  1

 41
0.9659999561309813
 11
192.1387023925781
 21
4.066864013671875
 31
0.0
100
AcDbAttributeDefinition
  3

  2
$:27
 70
     0
 74
     2
  0
ATTDEF
  5
BC
330
9A
100
AcDbEntity
  8
A
  6
Fin
 62
     3
370
    15
100
AcDbText
 10
268.6500244140625
 20
2.846875190734863
 30
0.0
 40
2.90625
  1

 41
1.207499945163727
 72
     2
 11
268.6500244140625
 21
4.300000190734863
 31
0.0
100
AcDbAttributeDefinition
  3

  2
$:11
 70
     0
 74
     2
  0
ATTDEF
  5
BD
330
9A
100
AcDbEntity
  8
A
  6
Fin
 62
     2
370
    15
100
AcDbText
 10
232.5
 20
15.0
 30
0.0
 40
3.229166666666666
  1

 41
0.9659999561309813
 72
     4
 11
232.5
 21
15.0
 31
0.0
100
AcDbAttributeDefinition
  3

  2
$:10
 70
     0
 74
     2
  0
ATTDEF
  5
BE
330
9A
100
AcDbEntity
  8
A
  6
Fin
 62
     2
370
    15
100
AcDbText
 10
335.0
 20
16.0
 30
0.0
 40
3.229166666666666
  1

 41
0.9659999561309813
 72
     4
 11
335.0
 21
16.0
 31
0.0
100
AcDbAttributeDefinition
  3

  2
$:09
 70
     0
 74
     2
  0
ATTDEF
  5
BF
330
9A
100
AcDbEntity
  8
A
  6
Fin
 62
     7
370
    15
100
AcDbText
 10
335.0
 20
9.5
 30
0.0
 40
2.583333333333333
  1

 41
0.9659999561309813
 72
     4
 11
335.0
 21
9.5
 31
0.0
100
AcDbAttributeDefinition
  3

  2
$FOLTITRE
 70
     0
 74
     2
  0
ATTDEF
  5
C0
330
9A
100
AcDbEntity
  8
A
  6
Fin
 62
     7
370
    15
100
AcDbText
 10
335.0
 20
5.0
 30
0.0
 40
2.583333333333333
  1

 41
0.9659999561309813
 72
     4
 11
335.0
 21
5.0
 31
0.0
100
AcDbAttributeDefinition
  3

  2
$FOLSSTITRE
 70
     0
 74
     2
  0
ATTDEF
  5
C1
330
9A
100
AcDbEntity
  8
A
  6
Fin
 62
     4
370
    15
100
AcDbText
 10
407.8999938964844
 20
17.59999847412109
 30
0.0
 40
3.229166666666666
  1

 41
1.086749950647354
 72
     4
 11
407.8999938964844
 21
17.59999847412109
 31
0.0
100
AcDbAttributeDefinition
  3

  2
$FOLNUM
 70
     0
 74
     2
  0
ATTDEF
  5
C2
330
9A
100
AcDbEntity
  8
A
  6
Fin
 62
     1
370
    15
100
AcDbText
 10
72.0
 20
17.85416666666667
 30
0.0
 40
1.291666666666667
  1

 41
0.9659999561309813
 11
72.0
 21
18.5
 31
0.0
100
AcDbAttributeDefinition
  3

  2
$:24 
 70
     0
 74
     2
  0
ATTDEF
  5
C3
330
9A
100
AcDbEntity
  8
A
  6
Fin
 62
     1
370
    15
100
AcDbText
 10
72.0
 20
11.35416666666667
 30
0.0
 40
1.291666666666667
  1

 41
0.9659999561309813
 11
72.0
 21
12.0
 31
0.0
100
AcDbAttributeDefinition
  3

  2
$:25
 70
     0
 74
     2
  0
ATTDEF
  5
C4
330
9A
100
AcDbEntity
  8
A
  6
Fin
 62
     1
370
    15
100
AcDbText
 10
72.0
 20
4.604166666666667
 30
0.0
 40
1.291666666666667
  1

 41
0.9659999561309813
 11
72.0
 21
5.25
 31
0.0
100
AcDbAttributeDefinition
  3

  2
$:26
 70
     0
 74
     2
  0
ATTDEF
  5
C5
330
9A
100
AcDbEntity
  8
A
  6
Fin
 62
     2
370
    15
100
AcDbText
 10
90.0
 20
16.5
 30
0.0
 40
1.9375
  1

 41
0.9659999561309813
 72
     4
 11
90.0
 21
16.5
 31
0.0
100
AcDbAttributeDefinition
  3

  2
$:13
 70
     0
 74
     2
  0
ATTDEF
  5
C6
330
9A
100
AcDbEntity
  8
A
  6
Fin
 62
     2
370
    15
100
AcDbText
 10
90.0
 20
9.75
 30
0.0
 40
1.9375
  1

 41
0.9659999561309813
 72
     4
 11
90.0
 21
9.75
 31
0.0
100
AcDbAttributeDefinition
  3

  2
$:14
 70
     0
 74
     2
  0
ATTDEF
  5
C7
330
9A
100
AcDbEntity
  8
A
  6
Fin
 62
     1
370
    15
100
AcDbText
 10
114.0
 20
2.25
 30
0.0
 40
1.291666666666667
  1

 41
0.9659999561309813
 72
     4
 11
114.0
 21
2.25
 31
0.0
100
AcDbAttributeDefinition
  3

  2
$:20
 70
     0
 74
     2
  0
ATTDEF
  5
C8
330
9A
100
AcDbEntity
  8
A
  6
Fin
 62
     1
370
    15
100
AcDbText
 10
125.0
 20
2.25
 30
0.0
 40
1.291666666666667
  1

 41
0.9659999561309813
 72
     4
 11
125.0
 21
2.25
 31
0.0
100
AcDbAttributeDefinition
  3

  2
$:22
 70
     0
 74
     2
  0
ATTDEF
  5
C9
330
9A
100
AcDbEntity
  8
A
  6
Fin
 62
     1
370
    15
100
AcDbText
 10
156.0
 20
2.25
 30
0.0
 40
1.330416666666667
  1

 41
0.9659999561309813
 72
     4
 11
156.0
 21
2.25
 31
0.0
100
AcDbAttributeDefinition
  3

  2
$:21
 70
     0
 74
     2
  0
ATTDEF
  5
CA
330
9A
100
AcDbEntity
  8
A
  6
Fin
 62
     2
370
    15
100
AcDbText
 10
90.0
 20
1.7521875
 30
0.0
 40
1.995625
  1

 41
0.9659999561309813
 72
     2
 11
90.0
 21
2.75
 31
0.0
100
AcDbAttributeDefinition
  3

  2
$:DATEAFFCREA
 70
     0
 74
     2
  0
ATTDEF
  5
CB
330
9A
100
AcDbEntity
  8
A
  6
Fin
 62
     7
370
    15
100
AcDbText
 10
114.25
 20
6.5
 30
0.0
 40
1.614583333333333
  1

 41
0.9659999561309813
 72
     4
 11
114.25
 21
6.5
 31
0.0
100
AcDbAttributeDefinition
  3

  2
$REV_IND:X
 70
     0
 74
     2
  0
ATTDEF
  5
CC
330
9A
100
AcDbEntity
  8
A
  6
Fin
 62
     7
370
    15
100
AcDbText
 10
114.25
 20
10.5
 30
0.0
 40
1.614583333333333
  1

 41
0.9659999561309813
 72
     4
 11
114.25
 21
10.5
 31
0.0
100
AcDbAttributeDefinition
  3

  2
$REV_IND:X+1
 70
     0
 74
     2
  0
ATTDEF
  5
CD
330
9A
100
AcDbEntity
  8
A
  6
Fin
 62
     7
370
    15
100
AcDbText
 10
114.25
 20
14.5
 30
0.0
 40
1.614583333333333
  1

 41
0.9659999561309813
 72
     4
 11
114.25
 21
14.5
 31
0.0
100
AcDbAttributeDefinition
  3

  2
$REV_IND:X+2
 70
     0
 74
     2
  0
ATTDEF
  5
CE
330
9A
100
AcDbEntity
  8
A
  6
Fin
 62
     7
370
    15
100
AcDbText
 10
114.25
 20
18.5
 30
0.0
 40
1.614583333333333
  1

 41
0.9659999561309813
 72
     4
 11
114.25
 21
18.5
 31
0.0
100
AcDbAttributeDefinition
  3

  2
$REV_IND:X+3
 70
     0
 74
     2
  0
ATTDEF
  5
CF
330
9A
100
AcDbEntity
  8
A
  6
Fin
 62
     7
370
    15
100
AcDbText
 10
125.25
 20
6.5
 30
0.0
 40
1.614583333333333
  1

 41
0.9659999561309813
 72
     4
 11
125.25
 21
6.5
 31
0.0
100
AcDbAttributeDefinition
  3

  2
$REV_DATE:X
 70
     0
 74
     2
  0
ATTDEF
  5
D0
330
9A
100
AcDbEntity
  8
A
  6
Fin
 62
     7
370
    15
100
AcDbText
 10
125.25
 20
10.5
 30
0.0
 40
1.614583333333333
  1

 41
0.9659999561309813
 72
     4
 11
125.25
 21
10.5
 31
0.0
100
AcDbAttributeDefinition
  3

  2
$REV_DATE:X+1
 70
     0
 74
     2
  0
ATTDEF
  5
D1
330
9A
100
AcDbEntity
  8
A
  6
Fin
 62
     7
370
    15
100
AcDbText
 10
125.25
 20
14.5
 30
0.0
 40
1.614583333333333
  1

 41
0.9659999561309813
 72
     4
 11
125.25
 21
14.5
 31
0.0
100
AcDbAttributeDefinition
  3

  2
$REV_DATE:X+2
 70
     0
 74
     2
  0
ATTDEF
  5
D2
330
9A
100
AcDbEntity
  8
A
  6
Fin
 62
     7
370
    15
100
AcDbText
 10
125.25
 20
18.5
 30
0.0
 40
1.614583333333333
  1

 41
0.9659999561309813
 72
     4
 11
125.25
 21
18.5
 31
0.0
100
AcDbAttributeDefinition
  3

  2
$REV_DATE:X+3
 70
     0
 74
     2
  0
ATTDEF
  5
D3
330
9A
100
AcDbEntity
  8
A
  6
Fin
 62
     7
370
    15
100
AcDbText
 10
134.0
 20
5.692708333333334
 30
0.0
 40
1.614583333333333
  1

 41
0.9659999561309813
 11
134.0
 21
6.5
 31
0.0
100
AcDbAttributeDefinition
  3

  2
$REV_LIB:X
 70
     0
 74
     2
  0
ATTDEF
  5
D4
330
9A
100
AcDbEntity
  8
A
  6
Fin
 62
     7
370
    15
100
AcDbText
 10
134.0
 20
9.692708333333334
 30
0.0
 40
1.614583333333333
  1

 41
0.9659999561309813
 11
134.0
 21
10.5
 31
0.0
100
AcDbAttributeDefinition
  3

  2
$REV_LIB:X+1
 70
     0
 74
     2
  0
ATTDEF
  5
D5
330
9A
100
AcDbEntity
  8
A
  6
Fin
 62
     7
370
    15
100
AcDbText
 10
134.0
 20
13.69270833333333
 30
0.0
 40
1.614583333333333
  1

 41
0.9659999561309813
 11
134.0
 21
14.5
 31
0.0
100
AcDbAttributeDefinition
  3

  2
$REV_LIB:X+2
 70
     0
 74
     2
  0
ATTDEF
  5
D6
330
9A
100
AcDbEntity
  8
A
  6
Fin
 62
     7
370
    15
100
AcDbText
 10
134.0
 20
17.69270833333333
 30
0.0
 40
1.614583333333333
  1

 41
0.9659999561309813
 11
134.0
 21
18.5
 31
0.0
100
AcDbAttributeDefinition
  3

  2
$REV_LIB:X+3
 70
     0
 74
     2
  0
ATTDEF
  5
D7
330
9A
100
AcDbEntity
  8
A
  6
Fin
 62
     7
370
    15
100
AcDbText
 10
185.0
 20
6.5
 30
0.0
 40
1.614583333333333
  1

 41
0.9659999561309813
 72
     4
 11
185.0
 21
6.5
 31
0.0
100
AcDbAttributeDefinition
  3

  2
$REV_NOM:X
 70
     0
 74
     2
  0
ATTDEF
  5
D8
330
9A
100
AcDbEntity
  8
A
  6
Fin
 62
     7
370
    15
100
AcDbText
 10
185.0
 20
10.5
 30
0.0
 40
1.614583333333333
  1

 41
0.9659999561309813
 72
     4
 11
185.0
 21
10.5
 31
0.0
100
AcDbAttributeDefinition
  3

  2
$REV_NOM:X+1
 70
     0
 74
     2
  0
ATTDEF
  5
D9
330
9A
100
AcDbEntity
  8
A
  6
Fin
 62
     7
370
    15
100
AcDbText
 10
185.0
 20
14.5
 30
0.0
 40
1.614583333333333
  1

 41
0.9659999561309813
 72
     4
 11
185.0
 21
14.5
 31
0.0
100
AcDbAttributeDefinition
  3

  2
$REV_NOM:X+2
 70
     0
 74
     2
  0
ATTDEF
  5
DA
330
9A
100
AcDbEntity
  8
A
  6
Fin
 62
     7
370
    15
100
AcDbText
 10
185.0
 20
18.5
 30
0.0
 40
1.614583333333333
  1

 41
0.9659999561309813
 72
     4
 11
185.0
 21
18.5
 31
0.0
100
AcDbAttributeDefinition
  3

  2
$REV_NOM:X+3
 70
     0
 74
     2
  0
ATTDEF
  5
DB
330
9A
100
AcDbEntity
  8
A
  6
Fin
 62
     4
370
    15
100
AcDbText
 10
414.25
 20
1.410416666666667
 30
0.0
 40
1.679166666666667
  1

 41
0.9659999561309813
 11
414.25
 21
2.25
 31
0.0
100
AcDbAttributeDefinition
  3

  2
$VERSION
 70
     0
 74
     2
  0
ATTDEF
  5
DC
330
9A
100
AcDbEntity
  8
A
  6
Fin
 62
     4
370
    15
100
AcDbText
 10
400.2000122070312
 20
10.20833333333333
 30
0.0
 40
2.583333333333333
  1

 41
0.9659999561309813
 11
400.2000122070312
 21
11.5
 31
0.0
100
AcDbAttributeDefinition
  3

  2
$FOLIO_PREC
 70
     0
 74
     2
  0
ATTDEF
  5
DD
330
9A
100
AcDbEntity
  8
A
  6
Fin
 62
     4
370
    15
100
AcDbText
 10
414.9114074707031
 20
6.260401566823323
 30
0.0
 40
2.583333333333333
  1

 41
0.9659999561309813
 72
     2
 11
414.9114074707031
 21
7.55206823348999
 31
0.0
100
AcDbAttributeDefinition
  3

  2
$FOLIO_SUIV
 70
     0
 74
     2
  0
ATTDEF
  5
DE
330
9A
100
AcDbEntity
  8
A
  6
Fin
 62
     7
370
    15
100
AcDbText
 10
5.0
 20
26.546875
 30
0.0
 40
2.90625
  1

 41
0.9659999561309813
 11
5.0
 21
28.0
 31
0.0
100
AcDbAttributeDefinition
  3

  2
$FONCTION
 70
     0
 74
     2
  0
ATTDEF
  5
DF
330
9A
100
AcDbEntity
  8
A
  6
Fin
 62
     7
370
    15
100
AcDbText
 10
5.0
 20
22.046875
 30
0.0
 40
2.90625
  1

 41
0.9659999561309813
 11
5.0
 21
23.5
 31
0.0
100
AcDbAttributeDefinition
  3

  2
$LOCALISATION
 70
     0
 74
     2
  0
ATTDEF
  5
E0
330
9A
100
AcDbEntity
  8
A
  6
Fin
 62
     1
370
    15
100
AcDbText
 10
184.6000061035156
 20
2.149997711181641
 30
0.0
 40
1.330416666666667
  1

 41
0.9659999561309813
 72
     4
 11
184.6000061035156
 21
2.149997711181641
 31
0.0
100
AcDbAttributeDefinition
  3

  2
$:16
 70
     0
 74
     2
  0
ATTDEF
  5
E1
330
9A
100
AcDbEntity
  8
A
  6
Fin
 62
     1
370
    15
100
AcDbText
 10
402.8999938964844
 20
2.150001525878906
 30
0.0
 40
1.369166666666667
  1

 41
0.9659999561309813
 72
     4
 11
402.8999938964844
 21
2.150001525878906
 31
0.0
100
AcDbAttributeDefinition
  3

  2
$:17
 70
     0
 74
     2
  0
ATTDEF
  5
E2
330
9A
100
AcDbEntity
  8
A
  6
Fin
 62
     1
370
    15
100
AcDbText
 10
99.0
 20
4.695425192515056
 30
0.0
 40
1.291666666666667
  1

 41
0.9659999561309813
 11
99.0
 21
5.341258525848389
 31
0.0
100
AcDbAttributeDefinition
  3

  2
$:23
 70
     0
 74
     2
  0
ATTDEF
  5
E3
330
9A
100
AcDbEntity
  8
A
  6
Fin
 62
     2
370
    15
100
AcDbText
 10
102.7103805541992
 20
2.710005283355713
 30
0.0
 40
1.9375
  1

 41
0.9659999561309813
 72
     4
 11
102.7103805541992
 21
2.710005283355713
 31
0.0
100
AcDbAttributeDefinition
  3

  2
$:12
 70
     0
 74
     2
  0
ATTDEF
  5
E4
330
9A
100
AcDbEntity
  8
A
  6
Fin
 62
     7
370
    15
100
AcDbText
 10
417.4972916666667
 20
296.0
 30
0.0
 40
0.9945833333333334
  1

 50
90.0
 41
1.207499945163727
 72
     2
 11
417.0
 21
296.0
 31
0.0
100
AcDbAttributeDefinition
  3

  2
$DOSSIER
 70
     0
 74
     2
  0
LINE
  5
E5
330
9A
100
AcDbEntity
  8
A
  6
Moyen
 62
     4
370
    25
100
AcDbLine
 10
38.19999694824219
 20
0.0
 30
0.0
 11
38.19999694824219
 21
20.0
 31
0.0
  0
ATTDEF
  5
E6
330
9A
100
AcDbEntity
  8
A
  6
Fin
 62
     3
370
    15
100
AcDbText
 10
274.25
 20
2.846875190734863
 30
0.0
 40
2.90625
  1

 41
1.207499945163727
 72
     2
 11
274.25
 21
4.300000190734863
 31
0.0
100
AcDbAttributeDefinition
  3

  2
$P_R_IND
 70
     0
 74
     2
  0
ATTDEF
  5
E7
330
9A
100
AcDbEntity
  8
A
  6
Fin
 62
     7
370
    15
100
AcDbText
 10
416.8358459472656
 20
21.03495597839355
 30
0.0
 40
0.96875
  1

 50
90.0
 41
1.207499945163727
 11
416.3514709472656
 21
21.03495597839355
 31
0.0
100
AcDbAttributeDefinition
  3

  2
$:28
 70
     0
 74
     2
  0
ATTDEF
  5
E8
330
9A
100
AcDbEntity
  8
A
  6
Fin
 62
     7
370
    15
100
AcDbText
 10
416.8358459472656
 20
67.03495788574219
 30
0.0
 40
0.96875
  1

 50
90.0
 41
1.207499945163727
 11
416.3514709472656
 21
67.03495788574219
 31
0.0
100
AcDbAttributeDefinition
  3

  2
$:32
 70
     0
 74
     2
  0
ATTDEF
  5
E9
330
9A
100
AcDbEntity
  8
A
  6
Fin
 62
     7
370
    15
100
AcDbText
 10
416.8358459472656
 20
108.8349609375
 30
0.0
 40
0.96875
  1

 50
90.0
 41
1.207499945163727
 11
416.3514709472656
 21
108.8349609375
 31
0.0
100
AcDbAttributeDefinition
  3

  2
$:31
 70
     0
 74
     2
  0
IMAGE
  5
ED
330
9A
100
AcDbEntity
  8
A
  6
Fin
 62
     0
370
    15
 92
      140
310
8C00000001000000840000000600000005000000000000003033D33F000000008899C93F00000000000000000000003933F34240000000008899C93F00000000000000000000003933F342400000409A999933400000000000000000000000003033D33F0000409A999933400000000000000000000000003033D33F000000
310
008899C93F0000000000000000
100
AcDbRasterImage
 90
        0
 10
0.2999992370605469
 20
0.1999979019165039
 30
0.0
 11
0.1021739169955254
 21
0.0
 31
0.0
 12
0.0
 22
0.1141176596283913
 32
0.0
 13
368.0
 23
170.0
340
EB
 70
     3
280
     0
281
    50
282
    50
283
     0
360
EE
 71
     1
 91
        2
 14
-0.5
 24
-0.5
 14
367.5
 24
169.5
  0
IMAGE
  5
F0
330
9A
100
AcDbEntity
  8
A
  6
Fin
 62
     0
370
    15
 92
      140
310
8C00000001000000840000000600000005000000000000009FD84340000040DB33732B40000000000000000000009A4080205140000040DB33732B40000000000000000000009A40802051400000004033B330400000000000000000000000009FD843400000004033B330400000000000000000000000009FD84340000040
310
DB33732B400000000000000000
100
AcDbRasterImage
 90
        0
 10
39.69235229492188
 20
13.72500500828028
 30
0.0
 11
0.0190704669803381
 21
0.0
 31
0.0
 12
0.0
 22
0.01907048560678959
 32
0.0
 13
1511.0
 23
156.0
340
EF
 70
     3
280
     0
281
    50
282
    50
283
     0
360
F1
 71
     1
 91
        2
 14
-0.5
 24
-0.5
 14
1510.5
 24
155.5
  0
LINE
  5
F2
330
9A
100
AcDbEntity
  8
A
  6
Moyen
 62
     4
370
    25
100
AcDbLine
 10
0.0
 20
292.0
 30
0.0
 11
415.0
 21
292.0
 31
0.0
  0
TEXT
  5
F4
330
9A
100
AcDbEntity
  8
A
  6
Fin
 62
     7
370
    15
100
AcDbText
 10
9.1179780960083
 20
292.75
 30
0.0
 40
2.260416666666667
  1
1
 41
0.9659999561309813
  7
Arial
100
AcDbText
  0
LINE
  5
F5
330
9A
100
AcDbEntity
  8
A
  6
Moyen
 62
     4
370
    25
100
AcDbLine
 10
20.0
 20
292.0
 30
0.0
 11
20.0
 21
297.0
 31
0.0
  0
TEXT
  5
F6
330
9A
100
AcDbEntity
  8
A
  6
Fin
 62
     7
370
    15
100
AcDbText
 10
29.11797714233398
 20
292.75
 30
0.0
 40
2.260416666666667
  1
2
 41
0.9659999561309813
  7
Arial
100
AcDbText
  0
LINE
  5
F7
330
9A
100
AcDbEntity
  8
A
  6
Moyen
 62
     4
370
    25
100
AcDbLine
 10
40.0
 20
292.0
 30
0.0
 11
40.0
 21
297.0
 31
0.0
  0
TEXT
  5
F8
330
9A
100
AcDbEntity
  8
A
  6
Fin
 62
     7
370
    15
100
AcDbText
 10
49.11797714233398
 20
292.75
 30
0.0
 40
2.260416666666667
  1
3
 41
0.9659999561309813
  7
Arial
100
AcDbText
  0
LINE
  5
F9
330
9A
100
AcDbEntity
  8
A
  6
Moyen
 62
     4
370
    25
100
AcDbLine
 10
60.0
 20
292.0
 30
0.0
 11
60.0
 21
297.0
 31
0.0
  0
TEXT
  5
FA
330
9A
100
AcDbEntity
  8
A
  6
Fin
 62
     7
370
    15
100
AcDbText
 10
69.11798095703125
 20
292.75
 30
0.0
 40
2.260416666666667
  1
4
 41
0.9659999561309813
  7
Arial
100
AcDbText
  0
LINE
  5
FB
330
9A
100
AcDbEntity
  8
A
  6
Moyen
 62
     4
370
    25
100
AcDbLine
 10
80.0
 20
292.0
 30
0.0
 11
80.0
 21
297.0
 31
0.0
  0
TEXT
  5
FC
330
9A
100
AcDbEntity
  8
A
  6
Fin
 62
     7
370
    15
100
AcDbText
 10
89.11798095703125
 20
292.75
 30
0.0
 40
2.260416666666667
  1
5
 41
0.9659999561309813
  7
Arial
100
AcDbText
  0
LINE
  5
FD
330
9A
100
AcDbEntity
  8
A
  6
Moyen
 62
     4
370
    25
100
AcDbLine
 10
100.0
 20
292.0
 30
0.0
 11
100.0
 21
297.0
 31
0.0
  0
TEXT
  5
FE
330
9A
100
AcDbEntity
  8
A
  6
Fin
 62
     7
370
    15
100
AcDbText
 10
109.1179809570312
 20
292.75
 30
0.0
 40
2.260416666666667
  1
6
 41
0.9659999561309813
  7
Arial
100
AcDbText
  0
LINE
  5
FF
330
9A
100
AcDbEntity
  8
A
  6
Moyen
 62
     4
370
    25
100
AcDbLine
 10
120.0
 20
292.0
 30
0.0
 11
120.0
 21
297.0
 31
0.0
  0
TEXT
  5
100
330
9A
100
AcDbEntity
  8
A
  6
Fin
 62
     7
370
    15
100
AcDbText
 10
129.1179809570312
 20
292.75
 30
0.0
 40
2.260416666666667
  1
7
 41
0.9659999561309813
  7
Arial
100
AcDbText
  0
LINE
  5
101
330
9A
100
AcDbEntity
  8
A
  6
Moyen
 62
     4
370
    25
100
AcDbLine
 10
140.0
 20
292.0
 30
0.0
 11
140.0
 21
297.0
 31
0.0
  0
TEXT
  5
102
330
9A
100
AcDbEntity
  8
A
  6
Fin
 62
     7
370
    15
100
AcDbText
 10
149.1179809570312
 20
292.75
 30
0.0
 40
2.260416666666667
  1
8
 41
0.9659999561309813
  7
Arial
100
AcDbText
  0
LINE
  5
103
330
9A
100
AcDbEntity
  8
A
  6
Moyen
 62
     4
370
    25
100
AcDbLine
 10
160.0
 20
292.0
 30
0.0
 11
160.0
 21
297.0
 31
0.0
  0
TEXT
  5
104
330
9A
100
AcDbEntity
  8
A
  6
Fin
 62
     7
370
    15
100
AcDbText
 10
169.1179809570312
 20
292.75
 30
0.0
 40
2.260416666666667
  1
9
 41
0.9659999561309813
  7
Arial
100
AcDbText
  0
LINE
  5
105
330
9A
100
AcDbEntity
  8
A
  6
Moyen
 62
     4
370
    25
100
AcDbLine
 10
180.0
 20
292.0
 30
0.0
 11
180.0
 21
297.0
 31
0.0
  0
TEXT
  5
106
330
9A
100
AcDbEntity
  8
A
  6
Fin
 62
     7
370
    15
100
AcDbText
 10
188.2359619140625
 20
292.75
 30
0.0
 40
2.260416666666667
  1
10
 41
0.9659999561309813
  7
Arial
100
AcDbText
  0
LINE
  5
107
330
9A
100
AcDbEntity
  8
A
  6
Moyen
 62
     4
370
    25
100
AcDbLine
 10
200.0
 20
292.0
 30
0.0
 11
200.0
 21
297.0
 31
0.0
  0
TEXT
  5
108
330
9A
100
AcDbEntity
  8
A
  6
Fin
 62
     7
370
    15
100
AcDbText
 10
208.2359619140625
 20
292.75
 30
0.0
 40
2.260416666666667
  1
11
 41
0.9659999561309813
  7
Arial
100
AcDbText
  0
LINE
  5
109
330
9A
100
AcDbEntity
  8
A
  6
Moyen
 62
     4
370
    25
100
AcDbLine
 10
220.0
 20
292.0
 30
0.0
 11
220.0
 21
297.0
 31
0.0
  0
TEXT
  5
10A
330
9A
100
AcDbEntity
  8
A
  6
Fin
 62
     7
370
    15
100
AcDbText
 10
228.2359619140625
 20
292.75
 30
0.0
 40
2.260416666666667
  1
12
 41
0.9659999561309813
  7
Arial
100
AcDbText
  0
LINE
  5
10B
330
9A
100
AcDbEntity
  8
A
  6
Moyen
 62
     4
370
    25
100
AcDbLine
 10
240.0
 20
292.0
 30
0.0
 11
240.0
 21
297.0
 31
0.0
  0
TEXT
  5
10C
330
9A
100
AcDbEntity
  8
A
  6
Fin
 62
     7
370
    15
100
AcDbText
 10
248.2359619140625
 20
292.75
 30
0.0
 40
2.260416666666667
  1
13
 41
0.9659999561309813
  7
Arial
100
AcDbText
  0
LINE
  5
10D
330
9A
100
AcDbEntity
  8
A
  6
Moyen
 62
     4
370
    25
100
AcDbLine
 10
260.0
 20
292.0
 30
0.0
 11
260.0
 21
297.0
 31
0.0
  0
TEXT
  5
10E
330
9A
100
AcDbEntity
  8
A
  6
Fin
 62
     7
370
    15
100
AcDbText
 10
268.2359619140625
 20
292.75
 30
0.0
 40
2.260416666666667
  1
14
 41
0.9659999561309813
  7
Arial
100
AcDbText
  0
LINE
  5
10F
330
9A
100
AcDbEntity
  8
A
  6
Moyen
 62
     4
370
    25
100
AcDbLine
 10
280.0
 20
292.0
 30
0.0
 11
280.0
 21
297.0
 31
0.0
  0
TEXT
  5
110
330
9A
100
AcDbEntity
  8
A
  6
Fin
 62
     7
370
    15
100
AcDbText
 10
288.2359619140625
 20
292.75
 30
0.0
 40
2.260416666666667
  1
15
 41
0.9659999561309813
  7
Arial
100
AcDbText
  0
LINE
  5
111
330
9A
100
AcDbEntity
  8
A
  6
Moyen
 62
     4
370
    25
100
AcDbLine
 10
300.0
 20
292.0
 30
0.0
 11
300.0
 21
297.0
 31
0.0
  0
TEXT
  5
112
330
9A
100
AcDbEntity
  8
A
  6
Fin
 62
     7
370
    15
100
AcDbText
 10
308.2359619140625
 20
292.75
 30
0.0
 40
2.260416666666667
  1
16
 41
0.9659999561309813
  7
Arial
100
AcDbText
  0
LINE
  5
113
330
9A
100
AcDbEntity
  8
A
  6
Moyen
 62
     4
370
    25
100
AcDbLine
 10
320.0
 20
292.0
 30
0.0
 11
320.0
 21
297.0
 31
0.0
  0
TEXT
  5
114
330
9A
100
AcDbEntity
  8
A
  6
Fin
 62
     7
370
    15
100
AcDbText
 10
328.2359619140625
 20
292.75
 30
0.0
 40
2.260416666666667
  1
17
 41
0.9659999561309813
  7
Arial
100
AcDbText
  0
LINE
  5
115
330
9A
100
AcDbEntity
  8
A
  6
Moyen
 62
     4
370
    25
100
AcDbLine
 10
340.0
 20
292.0
 30
0.0
 11
340.0
 21
297.0
 31
0.0
  0
TEXT
  5
116
330
9A
100
AcDbEntity
  8
A
  6
Fin
 62
     7
370
    15
100
AcDbText
 10
348.2359619140625
 20
292.75
 30
0.0
 40
2.260416666666667
  1
18
 41
0.9659999561309813
  7
Arial
100
AcDbText
  0
LINE
  5
117
330
9A
100
AcDbEntity
  8
A
  6
Moyen
 62
     4
370
    25
100
AcDbLine
 10
360.0
 20
292.0
 30
0.0
 11
360.0
 21
297.0
 31
0.0
  0
TEXT
  5
118
330
9A
100
AcDbEntity
  8
A
  6
Fin
 62
     7
370
    15
100
AcDbText
 10
368.2359619140625
 20
292.75
 30
0.0
 40
2.260416666666667
  1
19
 41
0.9659999561309813
  7
Arial
100
AcDbText
  0
LINE
  5
119
330
9A
100
AcDbEntity
  8
A
  6
Moyen
 62
     4
370
    25
100
AcDbLine
 10
380.0
 20
292.0
 30
0.0
 11
380.0
 21
297.0
 31
0.0
  0
TEXT
  5
11A
330
9A
100
AcDbEntity
  8
A
  6
Fin
 62
     7
370
    15
100
AcDbText
 10
388.2359619140625
 20
292.75
 30
0.0
 40
2.260416666666667
  1
20
 41
0.9659999561309813
  7
Arial
100
AcDbText
  0
LINE
  5
11B
330
9A
100
AcDbEntity
  8
A
  6
Moyen
 62
     4
370
    25
100
AcDbLine
 10
400.0
 20
292.0
 30
0.0
 11
400.0
 21
297.0
 31
0.0
  0
POLYLINE
  5
11C
330
9A
100
AcDbEntity
  8
A
  6
Moyen
 62
     4
370
    25
100
AcDb2dPolyline
 66
     1
 10
0.0
 20
0.0
 30
0.0
  0
VERTEX
  5
11D
330
11C
100
AcDbEntity
  8
A
  6
Moyen
 62
     4
100
AcDbVertex
100
AcDb2dVertex
 10
0.0
 20
0.0
 30
0.0
  0
VERTEX
  5
11E
330
11C
100
AcDbEntity
  8
A
  6
Moyen
 62
     4
100
AcDbVertex
100
AcDb2dVertex
 10
0.0
 20
297.0
 30
0.0
  0
VERTEX
  5
11F
330
11C
100
AcDbEntity
  8
A
  6
Moyen
 62
     4
100
AcDbVertex
100
AcDb2dVertex
 10
420.0
 20
297.0
 30
0.0
  0
VERTEX
  5
120
330
11C
100
AcDbEntity
  8
A
  6
Moyen
 62
     4
100
AcDbVertex
100
AcDb2dVertex
 10
420.0
 20
0.0
 30
0.0
  0
VERTEX
  5
121
330
11C
100
AcDbEntity
  8
A
  6
Moyen
 62
     4
100
AcDbVertex
100
AcDb2dVertex
 10
0.0
 20
0.0
 30
0.0
  0
SEQEND
  5
122
330
11C
100
AcDbEntity
  8
A
  6
Moyen
 62
     4
370
    25
  0
ENDBLK
  5
124
330
9A
100
AcDbEntity
  8
0
100
AcDbBlockEnd
  0
BLOCK
  5
200
330
14E
100
AcDbEntity
  8
0
100
AcDbBlockBegin
  2
_FX_VARIATEUR_0_5_0
 70
     2
 10
0.0
 20
0.0
 30
0.0
  3
_FX_VARIATEUR_0_5_0
  1

  0
ATTDEF
  5
14F
330
14E
100
AcDbEntity
  8
A
  6
Fin
 62
     3
370
    15
100
AcDbText
 10
0.0
 20
-28.45312547683716
 30
0.0
 40
2.90625
  1

 41
0.9659999561309813
  7
Arial
 11
0.0
 21
-27.00000047683716
 31
0.0
100
AcDbAttributeDefinition
  3

  2
$ETIQUETTE
 70
     0
 74
     2
  0
ATTDEF
  5
150
330
14E
100
AcDbEntity
  8
A
  6
Fin
 62
     3
370
    15
100
AcDbText
 10
0.0
 20
-21.29166666666667
 30
0.0
 40
2.583333333333333
  1

 41
0.9659999561309813
  7
Arial
 11
0.0
 21
-20.0
 31
0.0
100
AcDbAttributeDefinition
  3

  2
$LOCALISATION
 70
     0
 74
     2
  0
ATTDEF
  5
151
330
14E
100
AcDbEntity
  8
A
  6
Fin
 62
     3
370
    15
100
AcDbText
 10
0.0
 20
-14.2916673819224
 30
0.0
 40
2.583333333333333
  1

 41
0.9659999561309813
  7
Arial
 11
0.0
 21
-13.00000071525574
 31
0.0
100
AcDbAttributeDefinition
  3

  2
$FONCTION
 70
     0
 74
     2
  0
ATTDEF
  5
152
330
14E
100
AcDbEntity
  8
A
  6
Fin
 62
     1
370
    15
100
AcDbText
 10
10.49999713897705
 20
-39.13021024068197
 30
0.0
 40
2.260416666666667
  1

 41
0.9659999561309813
  7
Arial
 11
10.49999713897705
 21
-38.00000190734863
 31
0.0
100
AcDbAttributeDefinition
  3

  2
PRODUIT
 70
     0
 74
     2
  0
ATTDEF
  5
153
330
14E
100
AcDbEntity
  8
A
  6
Fin
 62
     1
370
    15
100
AcDbText
 10
0.0
 20
-47.1302121480306
 30
0.0
 40
2.260416666666667
  1

 41
0.9659999561309813
  7
Arial
 11
0.0
 21
-46.00000381469727
 31
0.0
100
AcDbAttributeDefinition
  3

  2
SYMBOLE
 70
     0
 74
     2
  0
ATTDEF
  5
154
330
14E
100
AcDbEntity
  8
A
  6
Fin
 62
     1
370
    15
100
AcDbText
 10
10.50000190734863
 20
-35.13020928700765
 30
0.0
 40
2.260416666666667
  1

 41
0.9659999561309813
  7
Arial
 11
10.50000190734863
 21
-34.00000095367432
 31
0.0
100
AcDbAttributeDefinition
  3

  2
FABRICANT
 70
     0
 74
     2
  0
ATTDEF
  5
155
330
14E
100
AcDbEntity
  8
A
  6
Fin
 62
     1
370
    15
100
AcDbText
 10
-0.2500081062316895
 20
-43.1302064259847
 30
0.0
 40
2.260416666666667
  1

 41
0.9659999561309813
  7
Arial
 11
-0.2500081062316895
 21
-41.99999809265137
 31
0.0
100
AcDbAttributeDefinition
  3

  2
SERIE
 70
     0
 74
     2
  0
ATTDEF
  5
156
330
14E
100
AcDbEntity
  8
A
  6
Fin
 62
     4
370
    15
100
AcDbText
 10
0.0
 20
-35.13020928700765
 30
0.0
 40
2.260416666666667
  1

 41
0.9659999561309813
  7
Arial
 11
0.0
 21
-34.00000095367432
 31
0.0
100
AcDbAttributeDefinition
  3

  2
FAB
 70
     0
 74
     2
  0
ATTDEF
  5
157
330
14E
100
AcDbEntity
  8
A
  6
Fin
 62
     4
370
    15
100
AcDbText
 10
0.0
 20
-39.13021024068197
 30
0.0
 40
2.260416666666667
  1

 41
0.9659999561309813
  7
Arial
 11
0.0
 21
-38.00000190734863
 31
0.0
100
AcDbAttributeDefinition
  3

  2
TYPE
 70
     0
 74
     2
  0
ATTDEF
  5
158
330
14E
100
AcDbEntity
  8
A
  6
Fin
 62
     1
370
    15
100
AcDbText
 10
0.0
 20
-4.500000476837158
 30
0.0
 40
1.9375
  1

 41
0.9659999561309813
  7
Arial
 72
     4
 11
0.0
 21
-4.500000476837158
 31
0.0
100
AcDbAttributeDefinition
  3

  2
$PL:1
 70
     0
 74
     2
  0
ATTDEF
  5
159
330
14E
100
AcDbEntity
  8
A
  6
Fin
 62
     1
370
    15
100
AcDbText
 10
10.0
 20
-4.500000476837158
 30
0.0
 40
1.9375
  1

 41
0.9659999561309813
  7
Arial
 72
     4
 11
10.0
 21
-4.500000476837158
 31
0.0
100
AcDbAttributeDefinition
  3

  2
$PL:2
 70
     0
 74
     2
  0
ATTDEF
  5
15A
330
14E
100
AcDbEntity
  8
A
  6
Fin
 62
     1
370
    15
100
AcDbText
 10
20.0
 20
-4.500000476837158
 30
0.0
 40
1.9375
  1

 41
0.9659999561309813
  7
Arial
 72
     4
 11
20.0
 21
-4.500000476837158
 31
0.0
100
AcDbAttributeDefinition
  3

  2
$PL:3
 70
     0
 74
     2
  0
ATTDEF
  5
15B
330
14E
100
AcDbEntity
  8
A
  6
Fin
 62
     1
370
    15
100
AcDbText
 10
30.00000953674316
 20
-4.500000476837158
 30
0.0
 40
1.9375
  1

 41
0.9659999561309813
  7
Arial
 72
     4
 11
30.00000953674316
 21
-4.500000476837158
 31
0.0
100
AcDbAttributeDefinition
  3

  2
$PL:4
 70
     0
 74
     2
  0
ATTDEF
  5
15C
330
14E
100
AcDbEntity
  8
A
  6
Fin
 62
     1
370
    15
100
AcDbText
 10
-10.00000953674316
 20
-40.46875047683716
 30
0.0
 40
1.9375
  1

 41
0.9659999561309813
  7
Arial
 11
-10.00000953674316
 21
-39.50000047683716
 31
0.0
100
AcDbAttributeDefinition
  3

  2
$PL:5
 70
     0
 74
     2
  0
ATTDEF
  5
15D
330
14E
100
AcDbEntity
  8
A
  6
Fin
 62
     1
370
    15
100
AcDbText
 10
-10.0
 20
-30.46875047683716
 30
0.0
 40
1.9375
  1

 41
0.9659999561309813
  7
Arial
 11
-10.0
 21
-29.50000047683716
 31
0.0
100
AcDbAttributeDefinition
  3

  2
$PL:6
 70
     0
 74
     2
  0
ATTDEF
  5
15E
330
14E
100
AcDbEntity
  8
A
  6
Fin
 62
     1
370
    15
100
AcDbText
 10
-10.0
 20
-20.96875
 30
0.0
 40
1.9375
  1

 41
0.9659999561309813
  7
Arial
 11
-10.0
 21
-20.0
 31
0.0
100
AcDbAttributeDefinition
  3

  2
$PL:7
 70
     0
 74
     2
  0
ATTDEF
  5
15F
330
14E
100
AcDbEntity
  8
A
  6
Fin
 62
     1
370
    15
100
AcDbText
 10
-10.0
 20
-10.96875
 30
0.0
 40
1.9375
  1

 41
0.9659999561309813
  7
Arial
 11
-10.0
 21
-10.0
 31
0.0
100
AcDbAttributeDefinition
  3

  2
$PL:8
 70
     0
 74
     2
  0
ATTDEF
  5
160
330
14E
100
AcDbEntity
  8
A
  6
Fin
 62
     1
370
    15
100
AcDbText
 10
0.0
 20
-49.49999809265137
 30
0.0
 40
1.9375
  1

 41
0.9659999561309813
  7
Arial
 72
     4
 11
0.0
 21
-49.49999809265137
 31
0.0
100
AcDbAttributeDefinition
  3

  2
$PL:9
 70
     0
 74
     2
  0
ATTDEF
  5
161
330
14E
100
AcDbEntity
  8
A
  6
Fin
 62
     1
370
    15
100
AcDbText
 10
10.0
 20
-49.49999809265137
 30
0.0
 40
1.9375
  1

 41
0.9659999561309813
  7
Arial
 72
     4
 11
10.0
 21
-49.49999809265137
 31
0.0
100
AcDbAttributeDefinition
  3

  2
$PL:10
 70
     0
 74
     2
  0
ATTDEF
  5
162
330
14E
100
AcDbEntity
  8
A
  6
Fin
 62
     1
370
    15
100
AcDbText
 10
20.0
 20
-49.49999809265137
 30
0.0
 40
1.9375
  1

 41
0.9659999561309813
  7
Arial
 72
     4
 11
20.0
 21
-49.49999809265137
 31
0.0
100
AcDbAttributeDefinition
  3

  2
$PL:11
 70
     0
 74
     2
  0
ATTDEF
  5
163
330
14E
100
AcDbEntity
  8
A
  6
Fin
 62
     1
370
    15
100
AcDbText
 10
30.0
 20
-49.49999809265137
 30
0.0
 40
1.9375
  1

 41
0.9659999561309813
  7
Arial
 72
     4
 11
30.0
 21
-49.49999809265137
 31
0.0
100
AcDbAttributeDefinition
  3

  2
$PL:12
 70
     0
 74
     2
  0
ATTDEF
  5
164
330
14E
100
AcDbEntity
  8
A
  6
Fin
 62
     1
370
    15
100
AcDbText
 10
180.0
 20
-49.49999809265137
 30
0.0
 40
1.9375
  1

 41
0.9659999561309813
  7
Arial
 72
     4
 11
180.0
 21
-49.49999809265137
 31
0.0
100
AcDbAttributeDefinition
  3

  2
$PL:13
 70
     0
 74
     2
  0
ATTDEF
  5
165
330
14E
100
AcDbEntity
  8
A
  6
Fin
 62
     1
370
    15
100
AcDbText
 10
195.0
 20
-49.49999809265137
 30
0.0
 40
1.9375
  1

 41
0.9659999561309813
  7
Arial
 72
     4
 11
195.0
 21
-49.49999809265137
 31
0.0
100
AcDbAttributeDefinition
  3

  2
$PL:14
 70
     0
 74
     2
  0
ATTDEF
  5
166
330
14E
100
AcDbEntity
  8
A
  6
Fin
 62
     1
370
    15
100
AcDbText
 10
165.0
 20
-49.49999809265137
 30
0.0
 40
1.9375
  1

 41
0.9659999561309813
  7
Arial
 72
     4
 11
165.0
 21
-49.49999809265137
 31
0.0
100
AcDbAttributeDefinition
  3

  2
$PL:15
 70
     0
 74
     2
  0
ATTDEF
  5
167
330
14E
100
AcDbEntity
  8
A
  6
Fin
 62
     1
370
    15
100
AcDbText
 10
150.0
 20
-49.49999809265137
 30
0.0
 40
1.9375
  1

 41
0.9659999561309813
  7
Arial
 72
     4
 11
150.0
 21
-49.49999809265137
 31
0.0
100
AcDbAttributeDefinition
  3

  2
$PL:16
 70
     0
 74
     2
  0
ATTDEF
  5
168
330
14E
100
AcDbEntity
  8
A
  6
Fin
 62
     1
370
    15
100
AcDbText
 10
225.0
 20
-49.49999809265137
 30
0.0
 40
1.9375
  1

 41
0.9659999561309813
  7
Arial
 72
     4
 11
225.0
 21
-49.49999809265137
 31
0.0
100
AcDbAttributeDefinition
  3

  2
$PL:17
 70
     0
 74
     2
  0
ATTDEF
  5
169
330
14E
100
AcDbEntity
  8
A
  6
Fin
 62
     1
370
    15
100
AcDbText
 10
140.0
 20
-49.49999809265137
 30
0.0
 40
1.9375
  1

 41
0.9659999561309813
  7
Arial
 72
     4
 11
140.0
 21
-49.49999809265137
 31
0.0
100
AcDbAttributeDefinition
  3

  2
$PL:18
 70
     0
 74
     2
  0
ATTDEF
  5
16A
330
14E
100
AcDbEntity
  8
A
  6
Fin
 62
     1
370
    15
100
AcDbText
 10
255.0
 20
-49.49999809265137
 30
0.0
 40
1.9375
  1

 41
0.9659999561309813
  7
Arial
 72
     4
 11
255.0
 21
-49.49999809265137
 31
0.0
100
AcDbAttributeDefinition
  3

  2
$PL:19
 70
     0
 74
     2
  0
ATTDEF
  5
16B
330
14E
100
AcDbEntity
  8
A
  6
Fin
 62
     1
370
    15
100
AcDbText
 10
270.0
 20
-49.49999809265137
 30
0.0
 40
1.9375
  1

 41
0.9659999561309813
  7
Arial
 72
     4
 11
270.0
 21
-49.49999809265137
 31
0.0
100
AcDbAttributeDefinition
  3

  2
$PL:20
 70
     0
 74
     2
  0
ATTDEF
  5
16C
330
14E
100
AcDbEntity
  8
A
  6
Fin
 62
     1
370
    15
100
AcDbText
 10
285.0
 20
-4.499998092651367
 30
0.0
 40
1.9375
  1

 41
0.9659999561309813
  7
Arial
 72
     4
 11
285.0
 21
-4.499998092651367
 31
0.0
100
AcDbAttributeDefinition
  3

  2
$PL:21
 70
     0
 74
     2
  0
ATTDEF
  5
16D
330
14E
100
AcDbEntity
  8
A
  6
Fin
 62
     1
370
    15
100
AcDbText
 10
130.0
 20
-4.499998092651367
 30
0.0
 40
1.9375
  1

 41
0.9659999561309813
  7
Arial
 72
     4
 11
130.0
 21
-4.499998092651367
 31
0.0
100
AcDbAttributeDefinition
  3

  2
$PL:22
 70
     0
 74
     2
  0
ATTDEF
  5
16E
330
14E
100
AcDbEntity
  8
A
  6
Fin
 62
     1
370
    15
100
AcDbText
 10
115.0
 20
-4.499998092651367
 30
0.0
 40
1.9375
  1

 41
0.9659999561309813
  7
Arial
 72
     4
 11
115.0
 21
-4.499998092651367
 31
0.0
100
AcDbAttributeDefinition
  3

  2
$PL:23
 70
     0
 74
     2
  0
ATTDEF
  5
16F
330
14E
100
AcDbEntity
  8
A
  6
Fin
 62
     1
370
    15
100
AcDbText
 10
145.0
 20
-4.499998092651367
 30
0.0
 40
1.9375
  1

 41
0.9659999561309813
  7
Arial
 72
     4
 11
145.0
 21
-4.499998092651367
 31
0.0
100
AcDbAttributeDefinition
  3

  2
$PL:24
 70
     0
 74
     2
  0
ATTDEF
  5
170
330
14E
100
AcDbEntity
  8
A
  6
Fin
 62
     1
370
    15
100
AcDbText
 10
160.0
 20
-4.499998092651367
 30
0.0
 40
1.9375
  1

 41
0.9659999561309813
  7
Arial
 72
     4
 11
160.0
 21
-4.499998092651367
 31
0.0
100
AcDbAttributeDefinition
  3

  2
$PL:25
 70
     0
 74
     2
  0
ATTDEF
  5
171
330
14E
100
AcDbEntity
  8
A
  6
Fin
 62
     1
370
    15
100
AcDbText
 10
175.0
 20
-4.499998092651367
 30
0.0
 40
1.9375
  1

 41
0.9659999561309813
  7
Arial
 72
     4
 11
175.0
 21
-4.499998092651367
 31
0.0
100
AcDbAttributeDefinition
  3

  2
$PL:26
 70
     0
 74
     2
  0
ATTDEF
  5
172
330
14E
100
AcDbEntity
  8
A
  6
Fin
 62
     1
370
    15
100
AcDbText
 10
205.0
 20
-4.499998092651367
 30
0.0
 40
1.9375
  1

 41
0.9659999561309813
  7
Arial
 72
     4
 11
205.0
 21
-4.499998092651367
 31
0.0
100
AcDbAttributeDefinition
  3

  2
$PL:27
 70
     0
 74
     2
  0
ATTDEF
  5
173
330
14E
100
AcDbEntity
  8
A
  6
Fin
 62
     1
370
    15
100
AcDbText
 10
190.0
 20
-4.499998092651367
 30
0.0
 40
1.9375
  1

 41
0.9659999561309813
  7
Arial
 72
     4
 11
190.0
 21
-4.499998092651367
 31
0.0
100
AcDbAttributeDefinition
  3

  2
$PL:28
 70
     0
 74
     2
  0
ATTDEF
  5
174
330
14E
100
AcDbEntity
  8
A
  6
Fin
 62
     1
370
    15
100
AcDbText
 10
270.0
 20
-4.499998092651367
 30
0.0
 40
1.9375
  1

 41
0.9659999561309813
  7
Arial
 72
     4
 11
270.0
 21
-4.499998092651367
 31
0.0
100
AcDbAttributeDefinition
  3

  2
$PL:29
 70
     0
 74
     2
  0
ATTDEF
  5
175
330
14E
100
AcDbEntity
  8
A
  6
Fin
 62
     1
370
    15
100
AcDbText
 10
235.0
 20
-4.499998092651367
 30
0.0
 40
1.9375
  1

 41
0.9659999561309813
  7
Arial
 72
     4
 11
235.0
 21
-4.499998092651367
 31
0.0
100
AcDbAttributeDefinition
  3

  2
$PL:30
 70
     0
 74
     2
  0
ATTDEF
  5
176
330
14E
100
AcDbEntity
  8
A
  6
Fin
 62
     1
370
    15
100
AcDbText
 10
45.0
 20
-4.499998092651367
 30
0.0
 40
1.9375
  1

 41
0.8452499616146087
  7
Arial
 72
     4
 11
45.0
 21
-4.499998092651367
 31
0.0
100
AcDbAttributeDefinition
  3

  2
$PL:31
 70
     0
 74
     2
  0
ATTDEF
  5
177
330
14E
100
AcDbEntity
  8
A
  6
Fin
 62
     1
370
    15
100
AcDbText
 10
55.0
 20
-4.499998092651367
 30
0.0
 40
1.9375
  1

 41
0.8452499616146087
  7
Arial
 72
     4
 11
55.0
 21
-4.499998092651367
 31
0.0
100
AcDbAttributeDefinition
  3

  2
$PL:32
 70
     0
 74
     2
  0
ATTDEF
  5
178
330
14E
100
AcDbEntity
  8
A
  6
Fin
 62
     1
370
    15
100
AcDbText
 10
65.0
 20
-4.499998092651367
 30
0.0
 40
1.9375
  1

 41
0.8452499616146087
  7
Arial
 72
     4
 11
65.0
 21
-4.499998092651367
 31
0.0
100
AcDbAttributeDefinition
  3

  2
$PL:33
 70
     0
 74
     2
  0
ATTDEF
  5
179
330
14E
100
AcDbEntity
  8
A
  6
Fin
 62
     1
370
    15
100
AcDbText
 10
75.0
 20
-4.499998092651367
 30
0.0
 40
1.9375
  1

 41
0.8452499616146087
  7
Arial
 72
     4
 11
75.0
 21
-4.499998092651367
 31
0.0
100
AcDbAttributeDefinition
  3

  2
$PL:34
 70
     0
 74
     2
  0
ATTDEF
  5
17A
330
14E
100
AcDbEntity
  8
A
  6
Fin
 62
     1
370
    15
100
AcDbText
 10
285.0
 20
-50.0
 30
0.0
 40
1.9375
  1

 41
0.9659999561309813
  7
Arial
 72
     4
 11
285.0
 21
-50.0
 31
0.0
100
AcDbAttributeDefinition
  3

  2
$PL:36
 70
     0
 74
     2
  0
ATTDEF
  5
17B
330
14E
100
AcDbEntity
  8
A
  6
Fin
 62
     1
370
    15
100
AcDbText
 10
70.0
 20
25.0
 30
0.0
 40
1.9375
  1

 41
0.9659999561309813
  7
Arial
 72
     4
 11
70.0
 21
25.0
 31
0.0
100
AcDbAttributeDefinition
  3

  2
$POS_REFCRO_1
 70
     0
 74
     2
  0
ATTDEF
  5
17C
330
14E
100
AcDbEntity
  8
A
  6
Fin
 62
     1
370
    15
100
AcDbText
 10
-10.0
 20
-15.0
 30
0.0
 40
1.9375
  1

 41
0.9659999561309813
  7
Arial
 72
     4
 11
-10.0
 21
-15.0
 31
0.0
100
AcDbAttributeDefinition
  3

  2
TEXT
 70
     0
 74
     2
  0
ATTDEF
  5
17D
330
14E
100
AcDbEntity
  8
A
  6
Fin
 62
     3
370
    15
100
AcDbText
 10
40.0
 20
-21.29166666666667
 30
0.0
 40
2.583333333333333
  1

 41
0.9659999561309813
  7
Arial
 11
40.0
 21
-20.0
 31
0.0
100
AcDbAttributeDefinition
  3

  2
COMMENT1
 70
     0
 74
     2
  0
ATTDEF
  5
17E
330
14E
100
AcDbEntity
  8
A
  6
Fin
 62
     3
370
    15
100
AcDbText
 10
40.0
 20
-28.29166714350383
 30
0.0
 40
2.583333333333333
  1

 41
0.9659999561309813
  7
Arial
 11
40.0
 21
-27.00000047683716
 31
0.0
100
AcDbAttributeDefinition
  3

  2
COMMENT2
 70
     0
 74
     2
  0
ATTDEF
  5
17F
330
14E
100
AcDbEntity
  8
A
  6
Fin
 62
     1
370
    15
100
AcDbText
 10
210.0
 20
-49.49999809265137
 30
0.0
 40
1.9375
  1

 41
0.9659999561309813
  7
Arial
 72
     4
 11
210.0
 21
-49.49999809265137
 31
0.0
100
AcDbAttributeDefinition
  3

  2
$PL:37
 70
     0
 74
     2
  0
ATTDEF
  5
180
330
14E
100
AcDbEntity
  8
A
  6
Fin
 62
     1
370
    15
100
AcDbText
 10
240.0
 20
-49.49999809265137
 30
0.0
 40
1.9375
  1

 41
0.9659999561309813
  7
Arial
 72
     4
 11
240.0
 21
-49.49999809265137
 31
0.0
100
AcDbAttributeDefinition
  3

  2
$PL:38
 70
     0
 74
     2
  0
ATTDEF
  5
181
330
14E
100
AcDbEntity
  8
A
  6
Fin
 62
     1
370
    15
100
AcDbText
 10
285.0
 20
-30.96875
 30
0.0
 40
1.9375
  1

 41
0.9659999561309813
  7
Arial
 72
     2
 11
285.0
 21
-30.0
 31
0.0
100
AcDbAttributeDefinition
  3

  2
$PL:39
 70
     0
 74
     2
  0
ATTDEF
  5
182
330
14E
100
AcDbEntity
  8
A
  6
Fin
 62
     1
370
    15
100
AcDbText
 10
195.6850096942745
 20
-43.18500969427447
 30
0.0
 40
1.9375
  1

 50
45.0
 41
0.9659999561309813
  7
Arial
 11
195.0
 21
-42.5
 31
0.0
100
AcDbAttributeDefinition
  3

  2
TEXT1
 70
     0
 74
     2
  0
ATTDEF
  5
183
330
14E
100
AcDbEntity
  8
A
  6
Fin
 62
     1
370
    15
100
AcDbText
 10
225.6850096942745
 20
-43.18500969427447
 30
0.0
 40
1.9375
  1

 50
45.0
 41
0.9659999561309813
  7
Arial
 11
225.0
 21
-42.5
 31
0.0
100
AcDbAttributeDefinition
  3

  2
TEXT2
 70
     0
 74
     2
  0
ATTDEF
  5
184
330
14E
100
AcDbEntity
  8
A
  6
Fin
 62
     1
370
    15
100
AcDbText
 10
277.5
 20
-20.96875
 30
0.0
 40
1.9375
  1

 41
0.9659999561309813
  7
Arial
 72
     2
 11
277.5
 21
-20.0
 31
0.0
100
AcDbAttributeDefinition
  3

  2
TEXT3
 70
     0
 74
     2
  0
CIRCLE
  5
185
330
14E
100
AcDbEntity
  8
A
  6
Symbol_C
 62
     4
370
    25
100
AcDbCircle
 10
20.0
 20
-1.000000238418579
 30
0.0
 40
1.000003814697266
  0
CIRCLE
  5
186
330
14E
100
AcDbEntity
  8
A
  6
Symbol_C
 62
     4
370
    25
100
AcDbCircle
 10
30.0
 20
-1.000000238418579
 30
0.0
 40
1.000003814697266
  0
CIRCLE
  5
187
330
14E
100
AcDbEntity
  8
A
  6
Symbol_C
 62
     4
370
    25
100
AcDbCircle
 10
0.0
 20
-53.99999618530273
 30
0.0
 40
1.000003814697266
  0
CIRCLE
  5
188
330
14E
100
AcDbEntity
  8
A
  6
Symbol_C
 62
     4
370
    25
100
AcDbCircle
 10
20.0
 20
-53.99999618530273
 30
0.0
 40
1.000003814697266
  0
CIRCLE
  5
189
330
14E
100
AcDbEntity
  8
A
  6
Symbol_C
 62
     4
370
    25
100
AcDbCircle
 10
30.0
 20
-53.99999618530273
 30
0.0
 40
1.000003814697266
  0
CIRCLE
  5
18A
330
14E
100
AcDbEntity
  8
A
  6
Symbol_C
 62
     4
370
    25
100
AcDbCircle
 10
10.0
 20
-53.99999618530273
 30
0.0
 40
1.000003814697266
  0
LINE
  5
18B
330
14E
100
AcDbEntity
  8
A
  6
Moyen
 62
     4
370
    25
100
AcDbLine
 10
30.0
 20
-7.000001668930054
 30
0.0
 11
30.0
 21
-9.999999403953552
 31
0.0
  0
LINE
  5
18C
330
14E
100
AcDbEntity
  8
A
  6
Moyen
 62
     4
370
    25
100
AcDbLine
 10
27.5
 20
-9.999999403953552
 30
0.0
 11
32.5
 21
-9.999999403953552
 31
0.0
  0
LINE
  5
18D
330
14E
100
AcDbEntity
  8
A
  6
Moyen
 62
     4
370
    25
100
AcDbLine
 10
28.50000381469727
 20
-10.99999904632568
 30
0.0
 11
31.49999618530273
 21
-10.99999904632568
 31
0.0
  0
LINE
  5
18E
330
14E
100
AcDbEntity
  8
A
  6
Moyen
 62
     4
370
    25
100
AcDbLine
 10
29.4999885559082
 20
-11.99999809265137
 30
0.0
 11
30.5000114440918
 21
-11.99999809265137
 31
0.0
  0
CIRCLE
  5
18F
330
14E
100
AcDbEntity
  8
A
  6
Symbol_C
 62
     4
370
    25
100
AcDbCircle
 10
0.0
 20
-1.000000238418579
 30
0.0
 40
1.000003814697266
  0
CIRCLE
  5
190
330
14E
100
AcDbEntity
  8
A
  6
Symbol_C
 62
     4
370
    25
100
AcDbCircle
 10
10.0
 20
-1.000000238418579
 30
0.0
 40
1.000003814697266
  0
CIRCLE
  5
191
330
14E
100
AcDbEntity
  8
A
  6
Symbol_C
 62
     4
370
    25
100
AcDbCircle
 10
-14.00000095367432
 20
-39.99999761581421
 30
0.0
 40
1.000003814697266
  0
CIRCLE
  5
192
330
14E
100
AcDbEntity
  8
A
  6
Symbol_C
 62
     4
370
    25
100
AcDbCircle
 10
-13.99999856948853
 20
-30.0
 30
0.0
 40
1.000003814697266
  0
CIRCLE
  5
193
330
14E
100
AcDbEntity
  8
A
  6
Symbol_C
 62
     4
370
    25
100
AcDbCircle
 10
-13.99999856948853
 20
-10.0
 30
0.0
 40
1.000003814697266
  0
CIRCLE
  5
194
330
14E
100
AcDbEntity
  8
A
  6
Symbol_C
 62
     4
370
    25
100
AcDbCircle
 10
140.0
 20
-53.99999618530273
 30
0.0
 40
1.000003814697266
  0
CIRCLE
  5
195
330
14E
100
AcDbEntity
  8
A
  6
Symbol_C
 62
     4
370
    25
100
AcDbCircle
 10
150.0
 20
-53.99999618530273
 30
0.0
 40
1.000003814697266
  0
CIRCLE
  5
196
330
14E
100
AcDbEntity
  8
A
  6
Symbol_C
 62
     4
370
    25
100
AcDbCircle
 10
180.0
 20
-53.99999618530273
 30
0.0
 40
1.000003814697266
  0
CIRCLE
  5
197
330
14E
100
AcDbEntity
  8
A
  6
Symbol_C
 62
     4
370
    25
100
AcDbCircle
 10
195.0
 20
-53.99999618530273
 30
0.0
 40
1.000003814697266
  0
CIRCLE
  5
198
330
14E
100
AcDbEntity
  8
A
  6
Symbol_C
 62
     4
370
    25
100
AcDbCircle
 10
210.0
 20
-53.99999618530273
 30
0.0
 40
1.000003814697266
  0
CIRCLE
  5
199
330
14E
100
AcDbEntity
  8
A
  6
Symbol_C
 62
     4
370
    25
100
AcDbCircle
 10
225.0
 20
-53.99999618530273
 30
0.0
 40
1.000003814697266
  0
CIRCLE
  5
19A
330
14E
100
AcDbEntity
  8
A
  6
Symbol_C
 62
     4
370
    25
100
AcDbCircle
 10
255.0
 20
-53.99999618530273
 30
0.0
 40
1.000003814697266
  0
CIRCLE
  5
19B
330
14E
100
AcDbEntity
  8
A
  6
Symbol_C
 62
     4
370
    25
100
AcDbCircle
 10
270.0
 20
-53.99999618530273
 30
0.0
 40
0.9999847412109375
  0
CIRCLE
  5
19C
330
14E
100
AcDbEntity
  8
A
  6
Symbol_C
 62
     4
370
    25
100
AcDbCircle
 10
115.0
 20
-1.499998569488525
 30
0.0
 40
1.000003814697266
  0
CIRCLE
  5
19D
330
14E
100
AcDbEntity
  8
A
  6
Symbol_C
 62
     4
370
    25
100
AcDbCircle
 10
130.0
 20
-1.499998569488525
 30
0.0
 40
1.000003814697266
  0
CIRCLE
  5
19E
330
14E
100
AcDbEntity
  8
A
  6
Symbol_C
 62
     4
370
    25
100
AcDbCircle
 10
145.0
 20
-1.499998569488525
 30
0.0
 40
1.000003814697266
  0
CIRCLE
  5
19F
330
14E
100
AcDbEntity
  8
A
  6
Symbol_C
 62
     4
370
    25
100
AcDbCircle
 10
160.0
 20
-1.499998569488525
 30
0.0
 40
1.000003814697266
  0
CIRCLE
  5
1A0
330
14E
100
AcDbEntity
  8
A
  6
Symbol_C
 62
     4
370
    25
100
AcDbCircle
 10
175.0
 20
-1.499998569488525
 30
0.0
 40
1.000003814697266
  0
CIRCLE
  5
1A1
330
14E
100
AcDbEntity
  8
A
  6
Symbol_C
 62
     4
370
    25
100
AcDbCircle
 10
190.0
 20
-1.499998569488525
 30
0.0
 40
1.000003814697266
  0
CIRCLE
  5
1A2
330
14E
100
AcDbEntity
  8
A
  6
Symbol_C
 62
     4
370
    25
100
AcDbCircle
 10
205.0
 20
-1.499998569488525
 30
0.0
 40
1.000003814697266
  0
CIRCLE
  5
1A3
330
14E
100
AcDbEntity
  8
A
  6
Symbol_C
 62
     4
370
    25
100
AcDbCircle
 10
235.0
 20
-1.499998569488525
 30
0.0
 40
0.9999847412109375
  0
CIRCLE
  5
1A4
330
14E
100
AcDbEntity
  8
A
  6
Symbol_C
 62
     4
370
    25
100
AcDbCircle
 10
270.0
 20
-0.9999985992908478
 30
0.0
 40
0.9999847412109375
  0
TEXT
  5
1A5
330
14E
100
AcDbEntity
  8
A
  6
Fin
 62
     1
370
    15
100
AcDbText
 10
131.7494964599609
 20
-46.12499713897705
 30
0.0
 40
2.098958333333333
  1
Px1
 41
0.9659999561309813
  7
Arial
100
AcDbText
  0
TEXT
  5
1A6
330
14E
100
AcDbEntity
  8
A
  6
Fin
 62
     1
370
    15
100
AcDbText
 10
37.25003480911255
 20
-11.37500047683716
 30
0.0
 40
2.098958333333333
  1
Px3
 41
0.9659999561309813
  7
Arial
100
AcDbText
  0
TEXT
  5
1A7
330
14E
100
AcDbEntity
  8
A
  6
Fin
 62
     1
370
    15
100
AcDbText
 10
106.5000152587891
 20
-11.37500047683716
 30
0.0
 40
2.098958333333333
  1
Px2
 41
0.9659999561309813
  7
Arial
100
AcDbText
  0
CIRCLE
  5
1A8
330
14E
100
AcDbEntity
  8
A
  6
Symbol_C
 62
     4
370
    25
100
AcDbCircle
 10
-13.99999856948853
 20
-20.0
 30
0.0
 40
1.000003814697266
  0
CIRCLE
  5
1A9
330
14E
100
AcDbEntity
  8
A
  6
Symbol_C
 62
     4
370
    25
100
AcDbCircle
 10
45.0
 20
-1.25
 30
0.0
 40
1.000003814697266
  0
CIRCLE
  5
1AA
330
14E
100
AcDbEntity
  8
A
  6
Symbol_C
 62
     4
370
    25
100
AcDbCircle
 10
55.0
 20
-1.25
 30
0.0
 40
1.000003814697266
  0
CIRCLE
  5
1AB
330
14E
100
AcDbEntity
  8
A
  6
Symbol_C
 62
     4
370
    25
100
AcDbCircle
 10
65.0
 20
-1.25
 30
0.0
 40
1.000003814697266
  0
CIRCLE
  5
1AC
330
14E
100
AcDbEntity
  8
A
  6
Symbol_C
 62
     4
370
    25
100
AcDbCircle
 10
75.0
 20
-1.25
 30
0.0
 40
1.000003814697266
  0
LINE
  5
1AD
330
14E
100
AcDbEntity
  8
A
  6
Moyen
 62
     4
370
    25
100
AcDbLine
 10
272.5
 20
-10.0
 30
0.0
 11
272.5
 21
-7.5
 31
0.0
  0
LINE
  5
1AE
330
14E
100
AcDbEntity
  8
A
  6
Moyen
 62
     4
370
    25
100
AcDbLine
 10
112.5
 20
-7.5
 30
0.0
 11
112.5
 21
-10.0
 31
0.0
  0
LINE
  5
1AF
330
14E
100
AcDbEntity
  8
A
  6
Moyen
 62
     4
370
    25
100
AcDbLine
 10
112.5
 20
-10.0
 30
0.0
 11
272.5
 21
-10.0
 31
0.0
  0
LINE
  5
1B0
330
14E
100
AcDbEntity
  8
A
  6
Moyen
 62
     4
370
    25
100
AcDbLine
 10
137.5
 20
-45.0
 30
0.0
 11
137.5
 21
-47.5
 31
0.0
  0
LINE
  5
1B1
330
14E
100
AcDbEntity
  8
A
  6
Moyen
 62
     4
370
    25
100
AcDbLine
 10
137.5
 20
-45.0
 30
0.0
 11
272.5
 21
-45.0
 31
0.0
  0
LINE
  5
1B2
330
14E
100
AcDbEntity
  8
A
  6
Moyen
 62
     4
370
    25
100
AcDbLine
 10
272.5
 20
-45.0
 30
0.0
 11
272.5
 21
-47.5
 31
0.0
  0
CIRCLE
  5
1B3
330
14E
100
AcDbEntity
  8
A
  6
Symbol_C
 62
     4
370
    25
100
AcDbCircle
 10
285.0
 20
-1.250001192092896
 30
0.0
 40
0.9999847412109375
  0
CIRCLE
  5
1B4
330
14E
100
AcDbEntity
  8
A
  6
Symbol_C
 62
     4
370
    25
100
AcDbCircle
 10
285.0
 20
-53.99999618530273
 30
0.0
 40
0.9999847412109375
  0
LINE
  5
1B5
330
14E
100
AcDbEntity
  8
A
  6
Moyen
 62
     4
370
    25
100
AcDbLine
 10
30.0
 20
-45.0
 30
0.0
 11
30.0
 21
-47.99999713897705
 31
0.0
  0
LINE
  5
1B6
330
14E
100
AcDbEntity
  8
A
  6
Moyen
 62
     4
370
    25
100
AcDbLine
 10
27.5
 20
-47.99999713897705
 30
0.0
 11
32.5
 21
-47.99999713897705
 31
0.0
  0
LINE
  5
1B7
330
14E
100
AcDbEntity
  8
A
  6
Moyen
 62
     4
370
    25
100
AcDbLine
 10
28.50000381469727
 20
-48.99999618530273
 30
0.0
 11
31.49999618530273
 21
-48.99999618530273
 31
0.0
  0
LINE
  5
1B8
330
14E
100
AcDbEntity
  8
A
  6
Moyen
 62
     4
370
    25
100
AcDbLine
 10
29.4999885559082
 20
-49.99999523162842
 30
0.0
 11
30.5000114440918
 21
-49.99999523162842
 31
0.0
  0
POLYLINE
  5
1B9
330
14E
100
AcDbEntity
  8
A
  6
Moyen
 62
     4
370
    25
100
AcDb2dPolyline
 66
     1
 10
0.0
 20
0.0
 30
0.0
  0
VERTEX
  5
1BA
330
1B9
100
AcDbEntity
  8
A
  6
Moyen
 62
     4
100
AcDbVertex
100
AcDb2dVertex
 10
-15.0
 20
0.0
 30
0.0
  0
VERTEX
  5
1BB
330
1B9
100
AcDbEntity
  8
A
  6
Moyen
 62
     4
100
AcDbVertex
100
AcDb2dVertex
 10
290.0
 20
0.0
 30
0.0
  0
VERTEX
  5
1BC
330
1B9
100
AcDbEntity
  8
A
  6
Moyen
 62
     4
100
AcDbVertex
100
AcDb2dVertex
 10
290.0
 20
-55.0
 30
0.0
  0
VERTEX
  5
1BD
330
1B9
100
AcDbEntity
  8
A
  6
Moyen
 62
     4
100
AcDbVertex
100
AcDb2dVertex
 10
-15.0
 20
-55.0
 30
0.0
  0
VERTEX
  5
1BE
330
1B9
100
AcDbEntity
  8
A
  6
Moyen
 62
     4
100
AcDbVertex
100
AcDb2dVertex
 10
-15.0
 20
0.0
 30
0.0
  0
SEQEND
  5
1BF
330
1B9
100
AcDbEntity
  8
A
  6
Moyen
 62
     4
370
    25
  0
LINE
  5
1C0
330
14E
100
AcDbEntity
  8
A
  6
Moyen
 62
     4
370
    25
100
AcDbLine
 10
284.4999694824219
 20
-9.999995231628418
 30
0.0
 11
285.5000305175781
 21
-9.999995231628418
 31
0.0
  0
LINE
  5
1C1
330
14E
100
AcDbEntity
  8
A
  6
Moyen
 62
     4
370
    25
100
AcDbLine
 10
283.4999847412109
 20
-8.999996185302734
 30
0.0
 11
286.5000152587891
 21
-8.999996185302734
 31
0.0
  0
LINE
  5
1C2
330
14E
100
AcDbEntity
  8
A
  6
Moyen
 62
     4
370
    25
100
AcDbLine
 10
282.5
 20
-7.999997138977051
 30
0.0
 11
287.5
 21
-7.999997138977051
 31
0.0
  0
LINE
  5
1C3
330
14E
100
AcDbEntity
  8
A
  6
Moyen
 62
     4
370
    25
100
AcDbLine
 10
285.0
 20
-4.999997615814209
 30
0.0
 11
285.0
 21
-7.999997138977051
 31
0.0
  0
LINE
  5
1C4
330
14E
100
AcDbEntity
  8
A
  6
Moyen
 62
     4
370
    25
100
AcDbLine
 10
285.0
 20
-43.25000762939453
 30
0.0
 11
285.0
 21
-46.25000953674316
 31
0.0
  0
LINE
  5
1C5
330
14E
100
AcDbEntity
  8
A
  6
Moyen
 62
     4
370
    25
100
AcDbLine
 10
282.5
 20
-46.25000953674316
 30
0.0
 11
287.5
 21
-46.25000953674316
 31
0.0
  0
LINE
  5
1C6
330
14E
100
AcDbEntity
  8
A
  6
Moyen
 62
     4
370
    25
100
AcDbLine
 10
283.4999847412109
 20
-47.25000381469727
 30
0.0
 11
286.5000152587891
 21
-47.25000381469727
 31
0.0
  0
LINE
  5
1C7
330
14E
100
AcDbEntity
  8
A
  6
Moyen
 62
     4
370
    25
100
AcDbLine
 10
284.4999694824219
 20
-48.25000762939453
 30
0.0
 11
285.5000305175781
 21
-48.25000762939453
 31
0.0
  0
TEXT
  5
1C8
330
14E
100
AcDbEntity
  8
A
  6
Fin
 62
     1
370
    15
100
AcDbText
 10
47.91963577270508
 20
-8.75
 30
0.0
 40
1.614583333333333
  1
RL1
 41
0.9659999561309813
  7
Arial
100
AcDbText
  0
TEXT
  5
1C9
330
14E
100
AcDbEntity
  8
A
  6
Fin
 62
     1
370
    15
100
AcDbText
 10
67.91963577270508
 20
-8.75
 30
0.0
 40
1.614583333333333
  1
RL2
 41
0.9659999561309813
  7
Arial
100
AcDbText
  0
TEXT
  5
1CA
330
14E
100
AcDbEntity
  8
A
  6
Fin
 62
     1
370
    15
100
AcDbText
 10
129.1796684265137
 20
-9.124999642372131
 30
0.0
 40
2.098958333333333
  1
2
 41
0.9659999561309813
  7
Arial
100
AcDbText
  0
TEXT
  5
1CB
330
14E
100
AcDbEntity
  8
A
  6
Fin
 62
     1
370
    15
100
AcDbText
 10
114.1796684265137
 20
-9.124999642372131
 30
0.0
 40
2.098958333333333
  1
1
 41
0.9659999561309813
  7
Arial
100
AcDbText
  0
TEXT
  5
1CC
330
14E
100
AcDbEntity
  8
A
  6
Fin
 62
     1
370
    15
100
AcDbText
 10
144.1796684265137
 20
-9.124999642372131
 30
0.0
 40
2.098958333333333
  1
4
 41
0.9659999561309813
  7
Arial
100
AcDbText
  0
TEXT
  5
1CD
330
14E
100
AcDbEntity
  8
A
  6
Fin
 62
     1
370
    15
100
AcDbText
 10
159.1796684265137
 20
-9.124999642372131
 30
0.0
 40
2.098958333333333
  1
5
 41
0.9659999561309813
  7
Arial
100
AcDbText
  0
TEXT
  5
1CE
330
14E
100
AcDbEntity
  8
A
  6
Fin
 62
     1
370
    15
100
AcDbText
 10
174.1796684265137
 20
-9.124999642372131
 30
0.0
 40
2.098958333333333
  1
7
 41
0.9659999561309813
  7
Arial
100
AcDbText
  0
TEXT
  5
1CF
330
14E
100
AcDbEntity
  8
A
  6
Fin
 62
     1
370
    15
100
AcDbText
 10
204.1796684265137
 20
-9.124999642372131
 30
0.0
 40
2.098958333333333
  1
9
 41
0.9659999561309813
  7
Arial
100
AcDbText
  0
TEXT
  5
1D0
330
14E
100
AcDbEntity
  8
A
  6
Fin
 62
     1
370
    15
100
AcDbText
 10
189.1796684265137
 20
-9.124999642372131
 30
0.0
 40
2.098958333333333
  1
8
 41
0.9659999561309813
  7
Arial
100
AcDbText
  0
TEXT
  5
1D1
330
14E
100
AcDbEntity
  8
A
  6
Fin
 62
     1
370
    15
100
AcDbText
 10
234.1796684265137
 20
-9.124999642372131
 30
0.0
 40
2.098958333333333
  1
3
 41
0.9659999561309813
  7
Arial
100
AcDbText
  0
TEXT
  5
1D2
330
14E
100
AcDbEntity
  8
A
  6
Fin
 62
     1
370
    15
100
AcDbText
 10
269.1796684265137
 20
-9.124999642372131
 30
0.0
 40
2.098958333333333
  1
6
 41
0.9659999561309813
  7
Arial
100
AcDbText
  0
POLYLINE
  5
1D3
330
14E
100
AcDbEntity
  8
A
  6
Fin
 62
     7
370
    15
100
AcDb2dPolyline
 66
     1
 10
0.0
 20
0.0
 30
0.0
  0
VERTEX
  5
1D4
330
1D3
100
AcDbEntity
  8
A
  6
Fin
 62
     7
100
AcDbVertex
100
AcDb2dVertex
 10
282.525749206543
 20
-21.90945625305176
 30
0.0
  0
VERTEX
  5
1D5
330
1D3
100
AcDbEntity
  8
A
  6
Fin
 62
     7
100
AcDbVertex
100
AcDb2dVertex
 10
282.525749206543
 20
-19.02192831039429
 30
0.0
  0
VERTEX
  5
1D6
330
1D3
100
AcDbEntity
  8
A
  6
Fin
 62
     7
100
AcDbVertex
100
AcDb2dVertex
 10
284.0874671936035
 20
-19.02192831039429
 30
0.0
  0
VERTEX
  5
1D7
330
1D3
100
AcDbEntity
  8
A
  6
Fin
 62
     7
100
AcDbVertex
100
AcDb2dVertex
 10
284.0874671936035
 20
-18.05942058563232
 30
0.0
  0
VERTEX
  5
1D8
330
1D3
100
AcDbEntity
  8
A
  6
Fin
 62
     7
100
AcDbVertex
100
AcDb2dVertex
 10
286.1697196960449
 20
-18.05942058563232
 30
0.0
  0
VERTEX
  5
1D9
330
1D3
100
AcDbEntity
  8
A
  6
Fin
 62
     7
100
AcDbVertex
100
AcDb2dVertex
 10
286.1697196960449
 20
-19.02192831039429
 30
0.0
  0
VERTEX
  5
1DA
330
1D3
100
AcDbEntity
  8
A
  6
Fin
 62
     7
100
AcDbVertex
100
AcDb2dVertex
 10
287.7314376831055
 20
-19.02192831039429
 30
0.0
  0
VERTEX
  5
1DB
330
1D3
100
AcDbEntity
  8
A
  6
Fin
 62
     7
100
AcDbVertex
100
AcDb2dVertex
 10
287.7314376831055
 20
-21.90945625305176
 30
0.0
  0
SEQEND
  5
1DC
330
1D3
100
AcDbEntity
  8
A
  6
Fin
 62
     7
370
    15
  0
POLYLINE
  5
1DD
330
14E
100
AcDbEntity
  8
A
  6
Fin
 62
     7
370
    15
100
AcDb2dPolyline
 66
     1
 10
0.0
 20
0.0
 30
0.0
  0
VERTEX
  5
1DE
330
1DD
100
AcDbEntity
  8
A
  6
Fin
 62
     7
100
AcDbVertex
100
AcDb2dVertex
 10
282.0051956176758
 20
-22.23029375076294
 30
0.0
  0
VERTEX
  5
1DF
330
1DD
100
AcDbEntity
  8
A
  6
Fin
 62
     7
100
AcDbVertex
100
AcDb2dVertex
 10
282.0051956176758
 20
-18.70108842849731
 30
0.0
  0
VERTEX
  5
1E0
330
1DD
100
AcDbEntity
  8
A
  6
Fin
 62
     7
100
AcDbVertex
100
AcDb2dVertex
 10
283.5668754577637
 20
-18.70108842849731
 30
0.0
  0
VERTEX
  5
1E1
330
1DD
100
AcDbEntity
  8
A
  6
Fin
 62
     7
100
AcDbVertex
100
AcDb2dVertex
 10
283.5668754577637
 20
-17.73858070373535
 30
0.0
  0
VERTEX
  5
1E2
330
1DD
100
AcDbEntity
  8
A
  6
Fin
 62
     7
100
AcDbVertex
100
AcDb2dVertex
 10
286.6903305053711
 20
-17.73858070373535
 30
0.0
  0
VERTEX
  5
1E3
330
1DD
100
AcDbEntity
  8
A
  6
Fin
 62
     7
100
AcDbVertex
100
AcDb2dVertex
 10
286.6903305053711
 20
-18.70108842849731
 30
0.0
  0
VERTEX
  5
1E4
330
1DD
100
AcDbEntity
  8
A
  6
Fin
 62
     7
100
AcDbVertex
100
AcDb2dVertex
 10
288.252010345459
 20
-18.70108842849731
 30
0.0
  0
VERTEX
  5
1E5
330
1DD
100
AcDbEntity
  8
A
  6
Fin
 62
     7
100
AcDbVertex
100
AcDb2dVertex
 10
288.252010345459
 20
-22.23029375076294
 30
0.0
  0
SEQEND
  5
1E6
330
1DD
100
AcDbEntity
  8
A
  6
Fin
 62
     7
370
    15
  0
LINE
  5
1E7
330
14E
100
AcDbEntity
  8
A
  6
Fin
 62
     7
370
    15
100
AcDbLine
 10
282.525749206543
 20
-21.90945625305176
 30
0.0
 11
287.7314376831055
 21
-21.90945625305176
 31
0.0
  0
LINE
  5
1E8
330
14E
100
AcDbEntity
  8
A
  6
Fin
 62
     7
370
    15
100
AcDbLine
 10
288.252010345459
 20
-22.23029375076294
 30
0.0
 11
282.0051956176758
 21
-22.23029375076294
 31
0.0
  0
TEXT
  5
1E9
330
14E
100
AcDbEntity
  8
A
  6
Fin
 62
     1
370
    15
100
AcDbText
 10
139.1796684265137
 20
-47.87499904632568
 30
0.0
 40
2.098958333333333
  1
9
 41
0.9659999561309813
  7
Arial
100
AcDbText
  0
TEXT
  5
1EA
330
14E
100
AcDbEntity
  8
A
  6
Fin
 62
     1
370
    15
100
AcDbText
 10
148.3658981323242
 20
-47.87499904632568
 30
0.0
 40
2.098958333333333
  1
10
 41
0.9659999561309813
  7
Arial
100
AcDbText
  0
TEXT
  5
1EB
330
14E
100
AcDbEntity
  8
A
  6
Fin
 62
     1
370
    15
100
AcDbText
 10
164.1796684265137
 20
-47.87499904632568
 30
0.0
 40
2.098958333333333
  1
3
 41
0.9659999561309813
  7
Arial
100
AcDbText
  0
TEXT
  5
1EC
330
14E
100
AcDbEntity
  8
A
  6
Fin
 62
     1
370
    15
100
AcDbText
 10
179.1796684265137
 20
-47.87499904632568
 30
0.0
 40
2.098958333333333
  1
1
 41
0.9659999561309813
  7
Arial
100
AcDbText
  0
TEXT
  5
1ED
330
14E
100
AcDbEntity
  8
A
  6
Fin
 62
     1
370
    15
100
AcDbText
 10
194.1796684265137
 20
-47.87499904632568
 30
0.0
 40
2.098958333333333
  1
2
 41
0.9659999561309813
  7
Arial
100
AcDbText
  0
TEXT
  5
1EE
330
14E
100
AcDbEntity
  8
A
  6
Fin
 62
     1
370
    15
100
AcDbText
 10
224.1796684265137
 20
-47.87499904632568
 30
0.0
 40
2.098958333333333
  1
4
 41
0.9659999561309813
  7
Arial
100
AcDbText
  0
TEXT
  5
1EF
330
14E
100
AcDbEntity
  8
A
  6
Fin
 62
     1
370
    15
100
AcDbText
 10
254.1796684265137
 20
-47.87499904632568
 30
0.0
 40
2.098958333333333
  1
7
 41
0.9659999561309813
  7
Arial
100
AcDbText
  0
TEXT
  5
1F0
330
14E
100
AcDbEntity
  8
A
  6
Fin
 62
     1
370
    15
100
AcDbText
 10
269.1796684265137
 20
-47.87499904632568
 30
0.0
 40
2.098958333333333
  1
8
 41
0.9659999561309813
  7
Arial
100
AcDbText
  0
LINE
  5
1F1
330
14E
100
AcDbEntity
  8
A
  6
Moyen
 62
     4
370
    25
100
AcDbLine
 10
47.50000953674316
 20
-12.74999976158142
 30
0.0
 11
45.0
 21
-12.74999976158142
 31
0.0
  0
LINE
  5
1F2
330
14E
100
AcDbEntity
  8
A
  6
Moyen
 62
     4
370
    25
100
AcDbLine
 10
45.0
 20
-7.250001430511475
 30
0.0
 11
45.0
 21
-12.750004529953
 31
0.0
  0
LINE
  5
1F3
330
14E
100
AcDbEntity
  8
A
  6
Moyen
 62
     4
370
    25
100
AcDbLine
 10
55.0
 20
-7.249999046325684
 30
0.0
 11
55.0
 21
-12.4999988079071
 31
0.0
  0
LINE
  5
1F4
330
14E
100
AcDbEntity
  8
A
  6
Moyen
 62
     4
370
    25
100
AcDbLine
 10
55.0
 20
-12.4999988079071
 30
0.0
 11
52.74999618530273
 21
-12.4999988079071
 31
0.0
  0
LINE
  5
1F5
330
14E
100
AcDbEntity
  8
A
  6
Moyen
 62
     4
370
    25
100
AcDbLine
 10
47.50001907348633
 20
-12.74999976158142
 30
0.0
 11
53.0000114440918
 21
-15.24999976158142
 31
0.0
  0
LINE
  5
1F6
330
14E
100
AcDbEntity
  8
A
  6
Moyen
 62
     4
370
    25
100
AcDbLine
 10
67.50000953674316
 20
-12.74999976158142
 30
0.0
 11
65.0
 21
-12.74999976158142
 31
0.0
  0
LINE
  5
1F7
330
14E
100
AcDbEntity
  8
A
  6
Moyen
 62
     4
370
    25
100
AcDbLine
 10
65.0
 20
-7.250001430511475
 30
0.0
 11
65.0
 21
-12.750004529953
 31
0.0
  0
LINE
  5
1F8
330
14E
100
AcDbEntity
  8
A
  6
Moyen
 62
     4
370
    25
100
AcDbLine
 10
75.0
 20
-7.249999046325684
 30
0.0
 11
75.0
 21
-12.4999988079071
 31
0.0
  0
LINE
  5
1F9
330
14E
100
AcDbEntity
  8
A
  6
Moyen
 62
     4
370
    25
100
AcDbLine
 10
75.0
 20
-12.4999988079071
 30
0.0
 11
72.74999618530273
 21
-12.4999988079071
 31
0.0
  0
LINE
  5
1FA
330
14E
100
AcDbEntity
  8
A
  6
Moyen
 62
     4
370
    25
100
AcDbLine
 10
67.50001907348633
 20
-12.74999976158142
 30
0.0
 11
73.0000114440918
 21
-15.24999976158142
 31
0.0
  0
CIRCLE
  5
1FB
330
14E
100
AcDbEntity
  8
A
  6
Symbol_C
 62
     4
370
    25
100
AcDbCircle
 10
165.0
 20
-53.99999618530273
 30
0.0
 40
1.000003814697266
  0
TEXT
  5
1FC
330
14E
100
AcDbEntity
  8
A
  6
Fin
 62
     1
370
    15
100
AcDbText
 10
209.1796684265137
 20
-47.87499904632568
 30
0.0
 40
2.098958333333333
  1
5
 41
0.9659999561309813
  7
Arial
100
AcDbText
  0
CIRCLE
  5
1FD
330
14E
100
AcDbEntity
  8
A
  6
Symbol_C
 62
     4
370
    25
100
AcDbCircle
 10
240.0
 20
-53.99999618530273
 30
0.0
 40
1.000003814697266
  0
TEXT
  5
1FE
330
14E
100
AcDbEntity
  8
A
  6
Fin
 62
     1
370
    15
100
AcDbText
 10
239.1796684265137
 20
-47.87499904632568
 30
0.0
 40
2.098958333333333
  1
6
 41
0.9659999561309813
  7
Arial
100
AcDbText
  0
CIRCLE
  5
1FF
330
14E
100
AcDbEntity
  8
A
  6
Symbol_C
 62
     4
370
    25
100
AcDbCircle
 10
288.75
 20
-30.24999856948853
 30
0.0
 40
0.9999847412109375
  0
ENDBLK
  5
201
330
14E
100
AcDbEntity
  8
0
100
AcDbBlockEnd
  0
BLOCK
  5
269
330
238
100
AcDbEntity
  8
0
100
AcDbBlockBegin
  2
CONSOLE_IHM_C_CONSOLE_0_5_0
 70
     2
 10
0.0
 20
0.0
 30
0.0
  3
CONSOLE_IHM_C_CONSOLE_0_5_0
  1

  0
ATTDEF
  5
239
330
238
100
AcDbEntity
  8
A
  6
Fin
 62
     3
370
    15
100
AcDbText
 10
-10.0
 20
-11.453125
 30
0.0
 40
2.90625
  1

 41
0.9659999561309813
  7
Arial
 72
     2
 11
-10.0
 21
-10.0
 31
0.0
100
AcDbAttributeDefinition
  3

  2
$ETIQUETTE
 70
     0
 74
     2
  0
ATTDEF
  5
23A
330
238
100
AcDbEntity
  8
A
  6
Fin
 62
     3
370
    15
100
AcDbText
 10
-10.0
 20
-6.291666666666667
 30
0.0
 40
2.583333333333333
  1

 41
0.9659999561309813
  7
Arial
 72
     2
 11
-10.0
 21
-5.0
 31
0.0
100
AcDbAttributeDefinition
  3

  2
$LOCALISATION
 70
     0
 74
     2
  0
ATTDEF
  5
23B
330
238
100
AcDbEntity
  8
A
  6
Fin
 62
     3
370
    15
100
AcDbText
 10
-10.0
 20
-1.291666666666667
 30
0.0
 40
2.583333333333333
  1

 41
0.9659999561309813
  7
Arial
 72
     2
 11
-10.0
 21
0.0
 31
0.0
100
AcDbAttributeDefinition
  3

  2
$FONCTION
 70
     0
 74
     2
  0
ATTDEF
  5
23C
330
238
100
AcDbEntity
  8
A
  6
Fin
 62
     1
370
    15
100
AcDbText
 10
-10.0
 20
-16.13020833333333
 30
0.0
 40
2.260416666666667
  1

 41
0.9659999561309813
  7
Arial
 72
     2
 11
-10.0
 21
-15.0
 31
0.0
100
AcDbAttributeDefinition
  3

  2
PRODUIT
 70
     0
 74
     2
  0
ATTDEF
  5
23D
330
238
100
AcDbEntity
  8
A
  6
Fin
 62
     1
370
    15
100
AcDbText
 10
6.000000238418579
 20
-17.96875047683716
 30
0.0
 40
1.9375
  1

 41
0.9659999561309813
  7
Arial
 11
6.000000238418579
 21
-17.00000047683716
 31
0.0
100
AcDbAttributeDefinition
  3

  2
$PL:1
 70
     0
 74
     2
  0
ATTDEF
  5
23E
330
238
100
AcDbEntity
  8
A
  6
Fin
 62
     1
370
    15
100
AcDbText
 10
-10.0
 20
-20.96875
 30
0.0
 40
1.9375
  1

 41
0.9659999561309813
  7
Arial
 72
     2
 11
-10.0
 21
-20.0
 31
0.0
100
AcDbAttributeDefinition
  3

  2
$POS_REFCRO_1
 70
     0
 74
     2
  0
ATTDEF
  5
23F
330
238
100
AcDbEntity
  8
A
  6
Fin
 62
     1
370
    15
100
AcDbText
 10
3.856868743896484
 20
1.784381866455078
 30
0.0
 40
1.9375
  1

 41
0.9659999561309813
  7
Arial
 72
     4
 11
3.856868743896484
 21
1.784381866455078
 31
0.0
100
AcDbAttributeDefinition
  3

  2
$PL:2
 70
     0
 74
     2
  0
ATTDEF
  5
240
330
238
100
AcDbEntity
  8
A
  6
Fin
 62
     1
370
    15
100
AcDbText
 10
-4.000000059604645
 20
-17.96875047683716
 30
0.0
 40
1.9375
  1

 41
0.9659999561309813
  7
Arial
 11
-4.000000059604645
 21
-17.00000047683716
 31
0.0
100
AcDbAttributeDefinition
  3

  2
$PL:3
 70
     0
 74
     2
  0
ATTDEF
  5
241
330
238
100
AcDbEntity
  8
A
  6
Fin
 62
     1
370
    15
100
AcDbText
 10
1.000000014901161
 20
-17.80729214350383
 30
0.0
 40
1.614583333333333
  1

 41
0.9659999561309813
  7
Arial
 11
1.000000014901161
 21
-17.00000047683716
 31
0.0
100
AcDbAttributeDefinition
  3

  2
$PL:4
 70
     0
 74
     2
  0
POLYLINE
  5
242
330
238
100
AcDbEntity
  8
A
  6
Fin
 62
     7
370
    15
100
AcDb2dPolyline
 66
     1
 10
0.0
 20
0.0
 30
0.0
  0
VERTEX
  5
243
330
242
100
AcDbEntity
  8
A
  6
Fin
 62
     7
100
AcDbVertex
100
AcDb2dVertex
 10
-7.499999403953552
 20
0.0
 30
0.0
  0
VERTEX
  5
244
330
242
100
AcDbEntity
  8
A
  6
Fin
 62
     7
100
AcDbVertex
100
AcDb2dVertex
 10
7.500000596046448
 20
0.0
 30
0.0
  0
VERTEX
  5
245
330
242
100
AcDbEntity
  8
A
  6
Fin
 62
     7
100
AcDbVertex
100
AcDb2dVertex
 10
7.500000596046448
 20
-15.0
 30
0.0
  0
VERTEX
  5
246
330
242
100
AcDbEntity
  8
A
  6
Fin
 62
     7
100
AcDbVertex
100
AcDb2dVertex
 10
-7.499999403953552
 20
-15.0
 30
0.0
  0
VERTEX
  5
247
330
242
100
AcDbEntity
  8
A
  6
Fin
 62
     7
100
AcDbVertex
100
AcDb2dVertex
 10
-7.499999403953552
 20
0.0
 30
0.0
  0
SEQEND
  5
248
330
242
100
AcDbEntity
  8
A
  6
Fin
 62
     7
370
    15
  0
LINE
  5
249
330
238
100
AcDbEntity
  8
A
  6
Moyen
 62
     4
370
    25
100
AcDbLine
 10
5.760114789009094
 20
-13.5555100440979
 30
0.0
 11
5.760114789009094
 21
-13.09087753295898
 31
0.0
  0
LINE
  5
24A
330
238
100
AcDbEntity
  8
A
  6
Moyen
 62
     4
370
    25
100
AcDbLine
 10
5.760114789009094
 20
-13.5555100440979
 30
0.0
 11
-5.959792733192444
 21
-13.5555100440979
 31
0.0
  0
LINE
  5
24B
330
238
100
AcDbEntity
  8
A
  6
Moyen
 62
     4
370
    25
100
AcDbLine
 10
6.764674186706543
 20
-14.48476433753967
 30
0.0
 11
-6.629509329795837
 21
-14.48476433753967
 31
0.0
  0
LINE
  5
24C
330
238
100
AcDbEntity
  8
A
  6
Moyen
 62
     4
370
    25
100
AcDbLine
 10
-6.964343786239624
 20
-14.94939088821411
 30
0.0
 11
6.429832577705383
 21
-14.94939088821411
 31
0.0
  0
LINE
  5
24D
330
238
100
AcDbEntity
  8
A
  6
Moyen
 62
     4
370
    25
100
AcDbLine
 10
-6.294627785682678
 20
-14.94939088821411
 30
0.0
 11
7.099552154541016
 21
-14.94939088821411
 31
0.0
  0
LINE
  5
24E
330
238
100
AcDbEntity
  8
A
  6
Moyen
 62
     4
370
    25
100
AcDbLine
 10
-5.959792733192444
 20
-13.5555100440979
 30
0.0
 11
-5.959792733192444
 21
-1.475243270397186
 31
0.0
  0
LINE
  5
24F
330
238
100
AcDbEntity
  8
A
  6
Moyen
 62
     4
370
    25
100
AcDbLine
 10
-6.629509329795837
 20
-14.48476433753967
 30
0.0
 11
-6.629509329795837
 21
-0.5459851026535034
 31
0.0
  0
LINE
  5
250
330
238
100
AcDbEntity
  8
A
  6
Moyen
 62
     4
370
    25
100
AcDbLine
 10
-6.964343786239624
 20
-0.0813541654497385
 30
0.0
 11
-6.964343786239624
 21
-14.94939088821411
 31
0.0
  0
LINE
  5
251
330
238
100
AcDbEntity
  8
A
  6
Moyen
 62
     4
370
    25
100
AcDbLine
 10
-5.959792733192444
 20
-1.475243270397186
 30
0.0
 11
5.760114789009094
 21
-1.475243270397186
 31
0.0
  0
LINE
  5
252
330
238
100
AcDbEntity
  8
A
  6
Moyen
 62
     4
370
    25
100
AcDbLine
 10
-6.629509329795837
 20
-0.5459851026535034
 30
0.0
 11
6.764674186706543
 21
-0.5459851026535034
 31
0.0
  0
LINE
  5
253
330
238
100
AcDbEntity
  8
A
  6
Moyen
 62
     4
370
    25
100
AcDbLine
 10
-6.964343786239624
 20
-0.0813541654497385
 30
0.0
 11
6.429832577705383
 21
-0.0813541654497385
 31
0.0
  0
LINE
  5
254
330
238
100
AcDbEntity
  8
A
  6
Moyen
 62
     4
370
    25
100
AcDbLine
 10
-6.294627785682678
 20
-0.0813541654497385
 30
0.0
 11
7.099552154541016
 21
-0.0813541654497385
 31
0.0
  0
LINE
  5
255
330
238
100
AcDbEntity
  8
A
  6
Moyen
 62
     4
370
    25
100
AcDbLine
 10
5.760114789009094
 20
-13.09087753295898
 30
0.0
 11
5.760114789009094
 21
-1.475243270397186
 31
0.0
  0
LINE
  5
256
330
238
100
AcDbEntity
  8
A
  6
Moyen
 62
     4
370
    25
100
AcDbLine
 10
6.764674186706543
 20
-0.5459851026535034
 30
0.0
 11
6.764674186706543
 21
-14.48476433753967
 31
0.0
  0
LINE
  5
257
330
238
100
AcDbEntity
  8
A
  6
Moyen
 62
     4
370
    25
100
AcDbLine
 10
7.099552154541016
 20
-14.94939088821411
 30
0.0
 11
7.099552154541016
 21
-0.0813541654497385
 31
0.0
  0
CIRCLE
  5
258
330
238
100
AcDbEntity
  8
A
  6
Moyen
 62
     4
370
    25
100
AcDbCircle
 10
4.839281737804413
 20
-14.02013540267944
 30
0.0
 40
0.0836765766143799
  0
LINE
  5
259
330
238
100
AcDbEntity
  8
A
  6
Moyen
 62
     4
370
    25
100
AcDbLine
 10
5.760114789009094
 20
-13.5555100440979
 30
0.0
 11
5.760114789009094
 21
-13.09087753295898
 31
0.0
  0
LINE
  5
25A
330
238
100
AcDbEntity
  8
A
  6
Moyen
 62
     4
370
    25
100
AcDbLine
 10
5.760114789009094
 20
-13.5555100440979
 30
0.0
 11
-5.959792733192444
 21
-13.5555100440979
 31
0.0
  0
LINE
  5
25B
330
238
100
AcDbEntity
  8
A
  6
Moyen
 62
     4
370
    25
100
AcDbLine
 10
6.764674186706543
 20
-14.48476433753967
 30
0.0
 11
-6.629509329795837
 21
-14.48476433753967
 31
0.0
  0
LINE
  5
25C
330
238
100
AcDbEntity
  8
A
  6
Moyen
 62
     4
370
    25
100
AcDbLine
 10
-6.964343786239624
 20
-14.94939088821411
 30
0.0
 11
6.429832577705383
 21
-14.94939088821411
 31
0.0
  0
LINE
  5
25D
330
238
100
AcDbEntity
  8
A
  6
Moyen
 62
     4
370
    25
100
AcDbLine
 10
-6.294627785682678
 20
-14.94939088821411
 30
0.0
 11
7.099552154541016
 21
-14.94939088821411
 31
0.0
  0
LINE
  5
25E
330
238
100
AcDbEntity
  8
A
  6
Moyen
 62
     4
370
    25
100
AcDbLine
 10
-5.959792733192444
 20
-13.5555100440979
 30
0.0
 11
-5.959792733192444
 21
-1.475243270397186
 31
0.0
  0
LINE
  5
25F
330
238
100
AcDbEntity
  8
A
  6
Moyen
 62
     4
370
    25
100
AcDbLine
 10
-6.629509329795837
 20
-14.48476433753967
 30
0.0
 11
-6.629509329795837
 21
-0.5459851026535034
 31
0.0
  0
LINE
  5
260
330
238
100
AcDbEntity
  8
A
  6
Moyen
 62
     4
370
    25
100
AcDbLine
 10
-6.964343786239624
 20
-0.0813541654497385
 30
0.0
 11
-6.964343786239624
 21
-14.94939088821411
 31
0.0
  0
LINE
  5
261
330
238
100
AcDbEntity
  8
A
  6
Moyen
 62
     4
370
    25
100
AcDbLine
 10
-5.959792733192444
 20
-1.475243270397186
 30
0.0
 11
5.760114789009094
 21
-1.475243270397186
 31
0.0
  0
LINE
  5
262
330
238
100
AcDbEntity
  8
A
  6
Moyen
 62
     4
370
    25
100
AcDbLine
 10
-6.629509329795837
 20
-0.5459851026535034
 30
0.0
 11
6.764674186706543
 21
-0.5459851026535034
 31
0.0
  0
LINE
  5
263
330
238
100
AcDbEntity
  8
A
  6
Moyen
 62
     4
370
    25
100
AcDbLine
 10
-6.964343786239624
 20
-0.0813541654497385
 30
0.0
 11
6.429832577705383
 21
-0.0813541654497385
 31
0.0
  0
LINE
  5
264
330
238
100
AcDbEntity
  8
A
  6
Moyen
 62
     4
370
    25
100
AcDbLine
 10
-6.294627785682678
 20
-0.0813541654497385
 30
0.0
 11
7.099552154541016
 21
-0.0813541654497385
 31
0.0
  0
LINE
  5
265
330
238
100
AcDbEntity
  8
A
  6
Moyen
 62
     4
370
    25
100
AcDbLine
 10
5.760114789009094
 20
-13.09087753295898
 30
0.0
 11
5.760114789009094
 21
-1.475243270397186
 31
0.0
  0
LINE
  5
266
330
238
100
AcDbEntity
  8
A
  6
Moyen
 62
     4
370
    25
100
AcDbLine
 10
6.764674186706543
 20
-0.5459851026535034
 30
0.0
 11
6.764674186706543
 21
-14.48476433753967
 31
0.0
  0
LINE
  5
267
330
238
100
AcDbEntity
  8
A
  6
Moyen
 62
     4
370
    25
100
AcDbLine
 10
7.099552154541016
 20
-14.94939088821411
 30
0.0
 11
7.099552154541016
 21
-0.0813541654497385
 31
0.0
  0
CIRCLE
  5
268
330
238
100
AcDbEntity
  8
A
  6
Moyen
 62
     4
370
    25
100
AcDbCircle
 10
4.839281737804413
 20
-14.02013540267944
 30
0.0
 40
0.0836765766143799
  0
ENDBLK
  5
26A
330
238
100
AcDbEntity
  8
0
100
AcDbBlockEnd
  0
BLOCK
  5
27B
330
272
100
AcDbEntity
  8
0
100
AcDbBlockBegin
  2
048C0_003_0_5_0
 70
     2
 10
0.0
 20
0.0
 30
0.0
  3
048C0_003_0_5_0
  1

  0
ATTDEF
  5
273
330
272
100
AcDbEntity
  8
A
  6
Fin
 62
     1
370
    15
100
AcDbText
 10
0.0
 20
-1.500000059604645
 30
0.0
 40
1.614583333333333
  1

 41
0.724499967098236
  7
Arial
 72
     4
 11
0.0
 21
-1.500000059604645
 31
0.0
100
AcDbAttributeDefinition
  3

  2
$HARNESS
 70
     0
 74
     2
  0
ATTDEF
  5
274
330
272
100
AcDbEntity
  8
A
  6
Fin
 62
     1
370
    15
100
AcDbText
 10
-1.25
 20
1.53125
 30
0.0
 40
1.9375
  1

 41
0.9659999561309813
  7
Arial
 72
     2
 11
-1.25
 21
2.5
 31
0.0
100
AcDbAttributeDefinition
  3

  2
$WD:ATR11:W1
 70
     0
 74
     2
  0
ATTDEF
  5
275
330
272
100
AcDbEntity
  8
A
  6
Fin
 62
     1
370
    15
100
AcDbText
 10
1.25
 20
1.53125
 30
0.0
 40
1.9375
  1

 41
0.9659999561309813
  7
Arial
 11
1.25
 21
2.5
 31
0.0
100
AcDbAttributeDefinition
  3

  2
$WD:ATR18:W1
 70
     0
 74
     2
  0
ATTDEF
  5
276
330
272
100
AcDbEntity
  8
A
  6
Fin
 62
     1
370
    15
100
AcDbText
 10
-2.5
 20
-2.807291547457377
 30
0.0
 40
1.614583333333333
  1

 41
0.724499967098236
  7
Arial
 72
     2
 11
-2.5
 21
-1.99999988079071
 31
0.0
100
AcDbAttributeDefinition
  3

  2
$WD:WDA16:W1
 70
     0
 74
     2
  0
ATTDEF
  5
277
330
272
100
AcDbEntity
  8
A
  6
Fin
 62
     1
370
    15
100
AcDbText
 10
-2.5
 20
-5.307292143503825
 30
0.0
 40
1.614583333333333
  1

 41
0.724499967098236
  7
Arial
 72
     2
 11
-2.5
 21
-4.500000476837158
 31
0.0
100
AcDbAttributeDefinition
  3

  2
$WD:WDA17:W1
 70
     0
 74
     2
  0
ATTDEF
  5
278
330
272
100
AcDbEntity
  8
A
  6
Fin
 62
     1
370
    15
100
AcDbText
 10
-2.5
 20
-7.807291547457377
 30
0.0
 40
1.614583333333333
  1

 41
0.724499967098236
  7
Arial
 72
     2
 11
-2.5
 21
-6.99999988079071
 31
0.0
100
AcDbAttributeDefinition
  3

  2
$WD:WDA18:W1
 70
     0
 74
     2
  0
ATTDEF
  5
279
330
272
100
AcDbEntity
  8
A
  6
Fin
 62
     1
370
    15
100
AcDbText
 10
-2.5
 20
-10.30729154745738
 30
0.0
 40
1.614583333333333
  1

 41
0.724499967098236
  7
Arial
 72
     2
 11
-2.5
 21
-9.49999988079071
 31
0.0
100
AcDbAttributeDefinition
  3

  2
$WD:WDA19:W1
 70
     0
 74
     2
  0
LINE
  5
27A
330
272
100
AcDbEntity
  8
A
  6
Fin
 62
     7
370
    15
100
AcDbLine
 10
1.000000014901161
 20
0.0
 30
0.0
 11
-1.000000014901161
 21
0.0
 31
0.0
  0
ENDBLK
  5
27C
330
272
100
AcDbEntity
  8
0
100
AcDbBlockEnd
  0
BLOCK
  5
281
330
280
100
AcDbEntity
  8
0
100
AcDbBlockBegin
  2
Assoc_1
 70
     0
 10
0.0
 20
0.0
 30
0.0
  3
Assoc_1
  1

  0
ENDBLK
  5
282
330
280
100
AcDbEntity
  8
0
100
AcDbBlockEnd
  0
ENDSEC
  0
SECTION
  2
ENTITIES
  0
INSERT
  5
125
330
1F
100
AcDbEntity
  8
A
  6
Fin
 62
     0
370
    15
100
AcDbBlockReference
  2
1
 10
0.0
 20
0.0
 30
0.0
  0
TEXT
  5
126
330
1F
100
AcDbEntity
  8
B
  6
Fin
 62
     1
370
    15
100
AcDbText
 10
192.1387023925781
 20
2.066864013671875
 30
0.0
 40
2.583333333333333
  1
DOCUMENT N° :
 41
0.9659999561309813
  7
Arial
100
AcDbText
  0
TEXT
  5
128
330
1F
100
AcDbEntity
  8
A
  6
Fin
 62
     2
370
    15
100
AcDbText
 10
330.2158203125
 20
13.5
 30
0.0
 40
3.229166666666666
  1
MD3
 41
0.9659999561309813
  7
Arial
100
AcDbText
  0
TEXT
  5
129
330
1F
100
AcDbEntity
  8
A
  6
Fin
 62
     7
370
    15
100
AcDbText
 10
301.4372253417969
 20
7.5
 30
0.0
 40
2.583333333333333
  1
PUISSANCE POWERDRIVE MD SMART
 41
0.9659999561309813
  7
Arial
100
AcDbText
  0
TEXT
  5
12A
330
1F
100
AcDbEntity
  8
A
  6
Fin
 62
     7
370
    15
100
AcDbText
 10
325.2216186523438
 20
3.0
 30
0.0
 40
2.583333333333333
  1
SERIE MD3
 41
0.9659999561309813
  7
Arial
100
AcDbText
  0
TEXT
  5
12B
330
1F
100
AcDbEntity
  8
A
  6
Fin
 62
     4
370
    15
100
AcDbText
 10
405.0649108886719
 20
15.09999847412109
 30
0.0
 40
3.229166666666666
  1
05
 41
1.086749950647354
  7
Arial
100
AcDbText
  0
TEXT
  5
12C
330
1F
100
AcDbEntity
  8
B
  6
Fin
 62
     1
370
    15
100
AcDbText
 10
72.0
 20
17.5
 30
0.0
 40
1.291666666666667
  1
VERIFIE
 41
0.9659999561309813
  7
Arial
100
AcDbText
  0
TEXT
  5
12D
330
1F
100
AcDbEntity
  8
B
  6
Fin
 62
     1
370
    15
100
AcDbText
 10
72.0
 20
11.0
 30
0.0
 40
1.291666666666667
  1
APPROUVE
 41
0.9659999561309813
  7
Arial
100
AcDbText
  0
TEXT
  5
12E
330
1F
100
AcDbEntity
  8
B
  6
Fin
 62
     1
370
    15
100
AcDbText
 10
72.0
 20
4.25
 30
0.0
 40
1.291666666666667
  1
DATE DE CREATION:
 41
0.9659999561309813
  7
Arial
100
AcDbText
  0
TEXT
  5
12F
330
1F
100
AcDbEntity
  8
A
  6
Fin
 62
     2
370
    15
100
AcDbText
 10
88.03645324707031
 20
15.0
 30
0.0
 40
1.9375
  1
DD
 41
0.9659999561309813
  7
Arial
100
AcDbText
  0
TEXT
  5
130
330
1F
100
AcDbEntity
  8
A
  6
Fin
 62
     2
370
    15
100
AcDbText
 10
88.11126708984375
 20
8.25
 30
0.0
 40
1.9375
  1
SR
 41
0.9659999561309813
  7
Arial
100
AcDbText
  0
TEXT
  5
131
330
1F
100
AcDbEntity
  8
B
  6
Fin
 62
     1
370
    15
100
AcDbText
 10
110.9260482788086
 20
1.25
 30
0.0
 40
1.291666666666667
  1
INDICE
 41
0.9659999561309813
  7
Arial
100
AcDbText
  0
TEXT
  5
132
330
1F
100
AcDbEntity
  8
B
  6
Fin
 62
     1
370
    15
100
AcDbText
 10
122.5810012817383
 20
1.25
 30
0.0
 40
1.291666666666667
  1
DATE
 41
0.9659999561309813
  7
Arial
100
AcDbText
  0
TEXT
  5
133
330
1F
100
AcDbEntity
  8
A
  6
Fin
 62
     2
370
    15
100
AcDbText
 10
75.99264526367188
 20
1.205000162124634
 30
0.0
 40
1.995625
  1
11/05/2021
 41
0.9659999561309813
  7
Arial
100
AcDbText
  0
TEXT
  5
134
330
1F
100
AcDbEntity
  8
A
  6
Fin
 62
     7
370
    15
100
AcDbText
 10
113.4939804077148
 20
5.25
 30
0.0
 40
1.614583333333333
  1
A
 41
0.9659999561309813
  7
Arial
100
AcDbText
  0
TEXT
  5
135
330
1F
100
AcDbEntity
  8
A
  6
Fin
 62
     7
370
    15
100
AcDbText
 10
119.5798492431641
 20
5.25
 30
0.0
 40
1.614583333333333
  1
15/11/2021
 41
0.9659999561309813
  7
Arial
100
AcDbText
  0
TEXT
  5
136
330
1F
100
AcDbEntity
  8
A
  6
Fin
 62
     4
370
    15
100
AcDbText
 10
414.25
 20
0.9500000476837158
 30
0.0
 40
1.679166666666667
  1
4.80
 41
0.9659999561309813
  7
Arial
100
AcDbText
  0
TEXT
  5
137
330
1F
100
AcDbEntity
  8
B
  6
Fin
 62
     1
370
    15
100
AcDbText
 10
411.25
 20
0.9500000476837158
 30
0.0
 40
1.679166666666667
  1
v.
 41
0.9659999561309813
  7
Arial
100
AcDbText
  0
TEXT
  5
138
330
1F
100
AcDbEntity
  8
A
  6
Fin
 62
     4
370
    15
100
AcDbText
 10
400.2000122070312
 20
9.5
 30
0.0
 40
2.583333333333333
  1
04
 41
0.9659999561309813
  7
Arial
100
AcDbText
  0
TEXT
  5
139
330
1F
100
AcDbEntity
  8
A
  6
Fin
 62
     4
370
    15
100
AcDbText
 10
410.8740539550781
 20
5.552068710327148
 30
0.0
 40
2.583333333333333
  1
06
 41
0.9659999561309813
  7
Arial
100
AcDbText
  0
TEXT
  5
13A
330
1F
100
AcDbEntity
  8
A
  6
Fin
 62
     7
370
    15
100
AcDbText
 10
5.000000953674316
 20
21.25
 30
0.0
 40
2.90625
  1
ARM1
 41
0.9659999561309813
  7
Arial
100
AcDbText
  0
TEXT
  5
13B
330
1F
100
AcDbEntity
  8
A
  6
Fin
 62
     7
370
    15
100
AcDbText
 10
2.0
 20
26.5
 30
0.0
 40
1.9375
  1
=
 41
0.9659999561309813
  7
Arial
100
AcDbText
  0
TEXT
  5
13C
330
1F
100
AcDbEntity
  8
A
  6
Fin
 62
     7
370
    15
100
AcDbText
 10
2.0
 20
22.0
 30
0.0
 40
1.9375
  1
+
 41
0.9659999561309813
  7
Arial
100
AcDbText
  0
TEXT
  5
13D
330
1F
100
AcDbEntity
  8
A
  6
Fin
 62
     1
370
    15
100
AcDbText
 10
182.6810760498047
 20
1.11999773979187
 30
0.0
 40
1.330416666666667
  1
DES
 41
0.9659999561309813
  7
Arial
100
AcDbText
  0
TEXT
  5
13E
330
1F
100
AcDbEntity
  8
A
  6
Fin
 62
     1
370
    15
100
AcDbText
 10
397.4582214355469
 20
1.090001583099365
 30
0.0
 40
1.369166666666667
  1
SOFTWARE
 41
0.9659999561309813
  7
Arial
100
AcDbText
  0
TEXT
  5
13F
330
1F
100
AcDbEntity
  8
B
  6
Fin
 62
     1
370
    15
100
AcDbText
 10
99.0
 20
4.341258525848389
 30
0.0
 40
1.291666666666667
  1
DESSINE
 41
0.9659999561309813
  7
Arial
100
AcDbText
  0
TEXT
  5
140
330
1F
100
AcDbEntity
  8
A
  6
Fin
 62
     2
370
    15
100
AcDbText
 10
100.7468338012695
 20
1.210005283355713
 30
0.0
 40
1.9375
  1
DD
 41
0.9659999561309813
  7
Arial
100
AcDbText
  0
TEXT
  5
141
330
1F
100
AcDbEntity
  8
A
  6
Fin
 62
     7
370
    15
100
AcDbText
 10
417.77001953125
 20
244.309814453125
 30
0.0
 40
0.9945833333333334
  1
Z:\SEE\V4R3\Dossier\2021\PON_POWER_BV\MD3 - Copie.seeprj
 50
90.0
 41
1.207499945163727
  7
Arial
100
AcDbText
  0
TEXT
  5
142
330
1F
100
AcDbEntity
  8
A
  6
Fin
 62
     7
370
    15
100
AcDbText
 10
43.3930778503418
 20
7.785002708435059
 30
0.0
 40
1.181875
  1
NIDEC - LEROY SOMER
 41
0.9659999561309813
  7
Arial
100
AcDbText
  0
TEXT
  5
143
330
1F
100
AcDbEntity
  8
A
  6
Fin
 62
     7
370
    15
100
AcDbText
 10
41.49515533447266
 20
5.303065299987793
 30
0.0
 40
1.181875
  1
Bd Marcellin Leroy - CS 10015
 41
0.9659999561309813
  7
Arial
100
AcDbText
  0
TEXT
  5
144
330
1F
100
AcDbEntity
  8
A
  6
Fin
 62
     7
370
    15
100
AcDbText
 10
39.92012023925781
 20
2.821127891540527
 30
0.0
 40
1.181875
  1
16915 Angouleme Cedex 9 France
 41
0.9659999561309813
  7
Arial
100
AcDbText
  0
TEXT
  5
146
330
1F
100
AcDbEntity
  8
A
  6
Fin
 62
     3
370
    15
100
AcDbText
 10
270.8505249023438
 20
2.050000190734863
 30
0.0
 40
2.90625
  1
A
 41
1.207499945163727
  7
Arial_BOLD
100
AcDbText
  0
TEXT
  5
147
330
1F
100
AcDbEntity
  8
A
  6
Fin
 62
     7
370
    15
100
AcDbText
 10
417.1014709472656
 20
21.03495788574219
 30
0.0
 40
0.96875
  1
Ce plan est la propriété de MOTEURS LEROY SOMER
 50
90.0
 41
1.207499945163727
  7
Arial
100
AcDbText
  0
TEXT
  5
148
330
1F
100
AcDbEntity
  8
A
  6
Fin
 62
     7
370
    15
100
AcDbText
 10
417.1014709472656
 20
67.03495788574219
 30
0.0
 40
0.96875
  1
et ne peut être reproduit ni communiqué à des tiers
 50
90.0
 41
1.207499945163727
  7
Arial
100
AcDbText
  0
TEXT
  5
149
330
1F
100
AcDbEntity
  8
A
  6
Fin
 62
     7
370
    15
100
AcDbText
 10
417.1014709472656
 20
108.8349609375
 30
0.0
 40
0.96875
  1
sans l'autorisation écrite de MOTEURS LEROY SOMER
 50
90.0
 41
1.207499945163727
  7
Arial
100
AcDbText
  0
LINE
  5
14A
330
1F
100
AcDbEntity
  8
A
  6
Jaune
 62
     2
370
    50
100
AcDbLine
 10
385.0
 20
120.0
 30
0.0
 11
385.0
 21
170.0
 31
0.0
  0
TEXT
  5
14B
330
1F
100
AcDbEntity
  8
A
  6
Fin
 62
     1
370
    15
100
AcDbText
 10
383.75
 20
145.0
 30
0.0
 40
2.260416666666667
  1

 50
90.0
 41
0.9659999561309813
  7
Arial
100
AcDbText
  0
TEXT
  5
14C
330
1F
100
AcDbEntity
  8
A
  6
Fin
 62
     1
370
    15
100
AcDbText
 10
388.9300155639648
 20
145.0
 30
0.0
 40
2.260416666666667
  1

 50
90.0
 41
0.9659999561309813
  7
Arial
100
AcDbText
  0
LINE
  5
14D
330
1F
100
AcDbEntity
  8
A
  6
Jaune
 62
     2
370
    50
100
AcDbLine
 10
350.0
 20
170.0
 30
0.0
 11
385.0
 21
170.0
 31
0.0
  0
INSERT
  5
202
330
1F
100
AcDbEntity
  8
A
  6
Fin
 62
     0
370
    15
100
AcDbBlockReference
 66
     1
  2
_FX_VARIATEUR_0_5_0
 10
60.0
 20
200.0
 30
0.0
  0
ATTRIB
  5
203
330
202
100
AcDbEntity
  8
B
  6
Fin
 62
     4
370
    15
100
AcDbText
 10
70.0
 20
164.2500019073486
 30
0.0
 40
2.260416666666667
  1
FAB:
 41
0.9659999561309813
  7
Arial
100
AcDbAttribute
  2
FAB
 70
     0
  0
ATTRIB
  5
204
330
202
100
AcDbEntity
  8
A
  6
Fin
 62
     1
370
    15
100
AcDbText
 10
56.47175788879395
 20
174.4999980926514
 30
0.0
 40
1.9375
  1
ARVC1
 41
0.9659999561309813
  7
Arial
100
AcDbAttribute
  2
TEXT
 70
     0
  0
ATTRIB
  5
205
330
202
100
AcDbEntity
  8
A
  6
Fin
 62
     1
370
    15
100
AcDbText
 10
256.0606575012207
 20
156.4393329620361
 30
0.0
 40
1.9375
  1
0-10V
 50
45.0
 41
0.9659999561309813
  7
Arial
100
AcDbAttribute
  2
TEXT1
 70
     1
  0
ATTRIB
  5
206
330
202
100
AcDbEntity
  8
A
  6
Fin
 62
     1
370
    15
100
AcDbText
 10
286.0606575012207
 20
156.4393329620361
 30
0.0
 40
1.9375
  1
0(4)-20mA
 50
45.0
 41
0.9659999561309813
  7
Arial
100
AcDbAttribute
  2
TEXT2
 70
     1
  0
ATTRIB
  5
207
330
202
100
AcDbEntity
  8
A
  6
Fin
 62
     1
370
    15
100
AcDbText
 10
323.9021682739258
 20
178.4999942779541
 30
0.0
 40
1.9375
  1
RS485/422
 41
0.9659999561309813
  7
Arial
100
AcDbAttribute
  2
TEXT3
 70
     0
  0
ATTRIB
  5
208
330
202
100
AcDbEntity
  8
B
  6
Fin
 62
     4
370
    15
100
AcDbText
 10
70.0
 20
160.2499961853027
 30
0.0
 40
2.260416666666667
  1
TYPE:
 41
0.9659999561309813
  7
Arial
100
AcDbAttribute
  2
TYPE
 70
     0
  0
ATTRIB
  5
209
330
202
100
AcDbEntity
  8
A
  6
Fin
 62
     3
370
    15
100
AcDbText
 10
70.0
 20
170.7500076293945
 30
0.0
 40
2.90625
  1
-A18
 41
0.9659999561309813
  7
Arial
100
AcDbAttribute
  2
$ETIQUETTE
 70
     0
  0
ATTRIB
  5
20A
330
202
100
AcDbEntity
  8
A
  6
Fin
 62
     1
370
    15
100
AcDbText
 10
58.49058628082275
 20
193.9999961853027
 30
0.0
 40
1.9375
  1
L1
 41
0.9659999561309813
  7
Arial
100
AcDbAttribute
  2
$PL:1
 70
     0
  0
ATTRIB
  5
20B
330
202
100
AcDbEntity
  8
A
  6
Fin
 62
     1
370
    15
100
AcDbText
 10
69.09435272216797
 20
148.9999961853027
 30
0.0
 40
1.9375
  1
V
 41
0.9659999561309813
  7
Arial
100
AcDbAttribute
  2
$PL:10
 70
     0
  0
ATTRIB
  5
20C
330
202
100
AcDbEntity
  8
A
  6
Fin
 62
     1
370
    15
100
AcDbText
 10
78.7202787399292
 20
148.9999961853027
 30
0.0
 40
1.9375
  1
W
 41
0.9659999561309813
  7
Arial
100
AcDbAttribute
  2
$PL:11
 70
     0
  0
ATTRIB
  5
20D
330
202
100
AcDbEntity
  8
A
  6
Fin
 62
     1
370
    15
100
AcDbText
 10
88.18870544433594
 20
148.9999961853027
 30
0.0
 40
1.9375
  1
PE
 41
0.9659999561309813
  7
Arial
100
AcDbAttribute
  2
$PL:12
 70
     1
  0
ATTRIB
  5
20E
330
202
100
AcDbEntity
  8
A
  6
Fin
 62
     1
370
    15
100
AcDbText
 10
236.7908477783203
 20
148.9999961853027
 30
0.0
 40
1.9375
  1
+10V
 41
0.9659999561309813
  7
Arial
100
AcDbAttribute
  2
$PL:13
 70
     0
  0
ATTRIB
  5
20F
330
202
100
AcDbEntity
  8
A
  6
Fin
 62
     1
370
    15
100
AcDbText
 10
252.1649360656738
 20
148.9999961853027
 30
0.0
 40
1.9375
  1
AI1+
 41
0.9659999561309813
  7
Arial
100
AcDbAttribute
  2
$PL:14
 70
     0
  0
ATTRIB
  5
210
330
202
100
AcDbEntity
  8
A
  6
Fin
 62
     1
370
    15
100
AcDbText
 10
222.2043037414551
 20
148.9999961853027
 30
0.0
 40
1.9375
  1
AI1–
 41
0.9659999561309813
  7
Arial
100
AcDbAttribute
  2
$PL:15
 70
     0
  0
ATTRIB
  5
211
330
202
100
AcDbEntity
  8
A
  6
Fin
 62
     1
370
    15
100
AcDbText
 10
208.3396530151367
 20
148.9999961853027
 30
0.0
 40
1.9375
  1
0V
 41
0.9659999561309813
  7
Arial
100
AcDbAttribute
  2
$PL:16
 70
     0
  0
ATTRIB
  5
212
330
202
100
AcDbEntity
  8
A
  6
Fin
 62
     1
370
    15
100
AcDbText
 10
282.1649360656738
 20
148.9999961853027
 30
0.0
 40
1.9375
  1
AI2+
 41
0.9659999561309813
  7
Arial
100
AcDbAttribute
  2
$PL:17
 70
     0
  0
ATTRIB
  5
213
330
202
100
AcDbEntity
  8
A
  6
Fin
 62
     1
370
    15
100
AcDbText
 10
194.7170639038086
 20
148.9999961853027
 30
0.0
 40
1.9375
  1
DI1-CTP
 41
0.9659999561309813
  7
Arial
100
AcDbAttribute
  2
$PL:18
 70
     0
  0
ATTRIB
  5
214
330
202
100
AcDbEntity
  8
A
  6
Fin
 62
     1
370
    15
100
AcDbText
 10
312.9590034484863
 20
148.9999961853027
 30
0.0
 40
1.9375
  1
AI3
 41
0.9659999561309813
  7
Arial
100
AcDbAttribute
  2
$PL:19
 70
     0
  0
ATTRIB
  5
215
330
202
100
AcDbEntity
  8
A
  6
Fin
 62
     1
370
    15
100
AcDbText
 10
68.49058628082275
 20
193.9999961853027
 30
0.0
 40
1.9375
  1
L2
 41
0.9659999561309813
  7
Arial
100
AcDbAttribute
  2
$PL:2
 70
     0
  0
ATTRIB
  5
216
330
202
100
AcDbEntity
  8
A
  6
Fin
 62
     1
370
    15
100
AcDbText
 10
327.2830581665039
 20
148.9999961853027
 30
0.0
 40
1.9375
  1
AO1
 41
0.9659999561309813
  7
Arial
100
AcDbAttribute
  2
$PL:20
 70
     0
  0
ATTRIB
  5
217
330
202
100
AcDbEntity
  8
A
  6
Fin
 62
     1
370
    15
100
AcDbText
 10
343.1887054443359
 20
193.9999961853027
 30
0.0
 40
1.9375
  1
PE
 41
0.9659999561309813
  7
Arial
100
AcDbAttribute
  2
$PL:21
 70
     0
  0
ATTRIB
  5
218
330
202
100
AcDbEntity
  8
A
  6
Fin
 62
     1
370
    15
100
AcDbText
 10
187.2043037414551
 20
193.9999961853027
 30
0.0
 40
1.9375
  1
DO1
 41
0.9659999561309813
  7
Arial
100
AcDbAttribute
  2
$PL:22
 70
     0
  0
ATTRIB
  5
219
330
202
100
AcDbEntity
  8
A
  6
Fin
 62
     1
370
    15
100
AcDbText
 10
171.7908477783203
 20
193.9999961853027
 30
0.0
 40
1.9375
  1
+24V
 41
0.9659999561309813
  7
Arial
100
AcDbAttribute
  2
$PL:23
 70
     0
  0
ATTRIB
  5
21A
330
202
100
AcDbEntity
  8
A
  6
Fin
 62
     1
370
    15
100
AcDbText
 10
202.8868293762207
 20
193.9999961853027
 30
0.0
 40
1.9375
  1
DI2
 41
0.9659999561309813
  7
Arial
100
AcDbAttribute
  2
$PL:24
 70
     0
  0
ATTRIB
  5
21B
330
202
100
AcDbEntity
  8
A
  6
Fin
 62
     1
370
    15
100
AcDbText
 10
217.8868293762207
 20
193.9999961853027
 30
0.0
 40
1.9375
  1
DI3
 41
0.9659999561309813
  7
Arial
100
AcDbAttribute
  2
$PL:25
 70
     0
  0
ATTRIB
  5
21C
330
202
100
AcDbEntity
  8
A
  6
Fin
 62
     1
370
    15
100
AcDbText
 10
232.8868293762207
 20
193.9999961853027
 30
0.0
 40
1.9375
  1
DI4
 41
0.9659999561309813
  7
Arial
100
AcDbAttribute
  2
$PL:26
 70
     0
  0
ATTRIB
  5
21D
330
202
100
AcDbEntity
  8
A
  6
Fin
 62
     1
370
    15
100
AcDbText
 10
261.7908477783203
 20
193.9999961853027
 30
0.0
 40
1.9375
  1
+24V
 41
0.9659999561309813
  7
Arial
100
AcDbAttribute
  2
$PL:27
 70
     0
  0
ATTRIB
  5
21E
330
202
100
AcDbEntity
  8
A
  6
Fin
 62
     1
370
    15
100
AcDbText
 10
247.8868293762207
 20
193.9999961853027
 30
0.0
 40
1.9375
  1
DI5
 41
0.9659999561309813
  7
Arial
100
AcDbAttribute
  2
$PL:28
 70
     0
  0
ATTRIB
  5
21F
330
202
100
AcDbEntity
  8
A
  6
Fin
 62
     1
370
    15
100
AcDbText
 10
324.3364334106445
 20
193.9999961853027
 30
0.0
 40
1.9375
  1
ST-OFF2
 41
0.9659999561309813
  7
Arial
100
AcDbAttribute
  2
$PL:29
 70
     0
  0
ATTRIB
  5
220
330
202
100
AcDbEntity
  8
A
  6
Fin
 62
     1
370
    15
100
AcDbText
 10
78.49058151245117
 20
193.9999961853027
 30
0.0
 40
1.9375
  1
L3
 41
0.9659999561309813
  7
Arial
100
AcDbAttribute
  2
$PL:3
 70
     0
  0
ATTRIB
  5
221
330
202
100
AcDbEntity
  8
A
  6
Fin
 62
     1
370
    15
100
AcDbText
 10
289.3364143371582
 20
193.9999961853027
 30
0.0
 40
1.9375
  1
ST-OFF1
 41
0.9659999561309813
  7
Arial
100
AcDbAttribute
  2
$PL:30
 70
     0
  0
ATTRIB
  5
222
330
202
100
AcDbEntity
  8
A
  6
Fin
 62
     1
370
    15
100
AcDbText
 10
104.3371677398682
 20
193.9999961853027
 30
0.0
 40
1.9375
  1
1
 41
0.8452499616146087
  7
Arial
100
AcDbAttribute
  2
$PL:31
 70
     0
  0
ATTRIB
  5
223
330
202
100
AcDbEntity
  8
A
  6
Fin
 62
     1
370
    15
100
AcDbText
 10
114.3371677398682
 20
193.9999961853027
 30
0.0
 40
1.9375
  1
2
 41
0.8452499616146087
  7
Arial
100
AcDbAttribute
  2
$PL:32
 70
     0
  0
ATTRIB
  5
224
330
202
100
AcDbEntity
  8
A
  6
Fin
 62
     1
370
    15
100
AcDbText
 10
124.3371677398682
 20
193.9999961853027
 30
0.0
 40
1.9375
  1
3
 41
0.8452499616146087
  7
Arial
100
AcDbAttribute
  2
$PL:33
 70
     0
  0
ATTRIB
  5
225
330
202
100
AcDbEntity
  8
A
  6
Fin
 62
     1
370
    15
100
AcDbText
 10
134.3371677398682
 20
193.9999961853027
 30
0.0
 40
1.9375
  1
4
 41
0.8452499616146087
  7
Arial
100
AcDbAttribute
  2
$PL:34
 70
     0
  0
ATTRIB
  5
226
330
202
100
AcDbEntity
  8
B
  6
Fin
 62
     1
370
    15
100
AcDbText
 10
343.1887054443359
 20
148.4999942779541
 30
0.0
 40
1.9375
  1
PE
 41
0.9659999561309813
  7
Arial
100
AcDbAttribute
  2
$PL:36
 70
     0
  0
ATTRIB
  5
227
330
202
100
AcDbEntity
  8
B
  6
Fin
 62
     1
370
    15
100
AcDbText
 10
267.5061798095703
 20
148.9999961853027
 30
0.0
 40
1.9375
  1
AI2-
 41
0.9659999561309813
  7
Arial
100
AcDbAttribute
  2
$PL:37
 70
     0
  0
ATTRIB
  5
228
330
202
100
AcDbEntity
  8
B
  6
Fin
 62
     1
370
    15
100
AcDbText
 10
298.3396530151367
 20
148.9999961853027
 30
0.0
 40
1.9375
  1
0V
 41
0.9659999561309813
  7
Arial
100
AcDbAttribute
  2
$PL:38
 70
     0
  0
ATTRIB
  5
229
330
202
100
AcDbEntity
  8
B
  6
Fin
 62
     1
370
    15
100
AcDbText
 10
341.6793060302734
 20
168.4999942779541
 30
0.0
 40
1.9375
  1
P2
 41
0.9659999561309813
  7
Arial
100
AcDbAttribute
  2
$PL:39
 70
     0
  0
ATTRIB
  5
22A
330
202
100
AcDbEntity
  8
A
  6
Fin
 62
     1
370
    15
100
AcDbText
 10
88.1887149810791
 20
193.9999961853027
 30
0.0
 40
1.9375
  1
PE
 41
0.9659999561309813
  7
Arial
100
AcDbAttribute
  2
$PL:4
 70
     1
  0
ATTRIB
  5
22B
330
202
100
AcDbEntity
  8
A
  6
Fin
 62
     1
370
    15
100
AcDbText
 10
49.99999046325684
 20
158.9999961853027
 30
0.0
 40
1.9375
  1
BR1
 41
0.9659999561309813
  7
Arial
100
AcDbAttribute
  2
$PL:5
 70
     1
  0
ATTRIB
  5
22C
330
202
100
AcDbEntity
  8
A
  6
Fin
 62
     1
370
    15
100
AcDbText
 10
50.0
 20
168.9999961853027
 30
0.0
 40
1.9375
  1
BR2
 41
0.9659999561309813
  7
Arial
100
AcDbAttribute
  2
$PL:6
 70
     1
  0
ATTRIB
  5
22D
330
202
100
AcDbEntity
  8
A
  6
Fin
 62
     1
370
    15
100
AcDbText
 10
50.0
 20
178.4999942779541
 30
0.0
 40
1.9375
  1
~
 41
0.9659999561309813
  7
Arial
100
AcDbAttribute
  2
$PL:7
 70
     1
  0
ATTRIB
  5
22E
330
202
100
AcDbEntity
  8
A
  6
Fin
 62
     1
370
    15
100
AcDbText
 10
50.0
 20
188.5000038146973
 30
0.0
 40
1.9375
  1
~
 41
0.9659999561309813
  7
Arial
100
AcDbAttribute
  2
$PL:8
 70
     1
  0
ATTRIB
  5
22F
330
202
100
AcDbEntity
  8
A
  6
Fin
 62
     1
370
    15
100
AcDbText
 10
59.01559829711914
 20
148.9999961853027
 30
0.0
 40
1.9375
  1
U
 41
0.9659999561309813
  7
Arial
100
AcDbAttribute
  2
$PL:9
 70
     0
  0
ATTRIB
  5
230
330
202
100
AcDbEntity
  8
A
  6
Fin
 62
     1
370
    15
100
AcDbText
 10
80.49999237060547
 20
164.2500019073486
 30
0.0
 40
2.260416666666667
  1
LEROY SOMER
 41
0.9659999561309813
  7
Arial
100
AcDbAttribute
  2
FABRICANT
 70
     0
  0
ATTRIB
  5
231
330
202
100
AcDbEntity
  8
A
  6
Fin
 62
     1
370
    15
100
AcDbText
 10
80.49999237060547
 20
160.2499961853027
 30
0.0
 40
2.260416666666667
  1
POWERDRIVE MD3
 41
0.9659999561309813
  7
Arial
100
AcDbAttribute
  2
PRODUIT
 70
     0
  0
ATTRIB
  5
232
330
202
100
AcDbEntity
  8
A
  6
Fin
 62
     1
370
    15
100
AcDbText
 10
59.74999904632568
 20
156.25
 30
0.0
 40
2.260416666666667
  1
POWERDRIVE
 41
0.9659999561309813
  7
Arial
100
AcDbAttribute
  2
SERIE
 70
     1
  0
ATTRIB
  5
233
330
202
100
AcDbEntity
  8
A
  6
Fin
 62
     1
370
    15
100
AcDbText
 10
60.0
 20
152.2499942779541
 30
0.0
 40
2.260416666666667
  1
@FX.VARIATEUR
 41
0.9659999561309813
  7
Arial
100
AcDbAttribute
  2
SYMBOLE
 70
     1
  0
ATTRIB
  5
234
330
202
100
AcDbEntity
  8
A
  6
Fin
 62
     1
370
    15
100
AcDbText
 10
127.5774192810059
 20
223.5000038146973
 30
0.0
 40
1.9375
  1
1-2 - -
 41
0.9659999561309813
  7
Arial
100
AcDbAttribute
  2
$REFCRO00000
 70
     0
  0
ATTRIB
  5
235
330
202
100
AcDbEntity
  8
A
  6
Fin
 62
     1
370
    15
100
AcDbText
 10
127.5774192810059
 20
217.5
 30
0.0
 40
1.9375
  1
3-4 - -
 41
0.9659999561309813
  7
Arial
100
AcDbAttribute
  2
$REFCRO00001
 70
     0
  0
ATTRIB
  5
236
330
202
100
AcDbEntity
  8
A
  6
Fin
 62
     1
370
    15
100
AcDbText
 10
126.3633155822754
 20
211.4999961853027
 30
0.0
 40
1.9375
  1
2-3-1 - -
 41
0.9659999561309813
  7
Arial
100
AcDbAttribute
  2
$REFCRO00002
 70
     0
  0
ATTRIB
  5
237
330
202
100
AcDbEntity
  8
A
  6
Fin
 62
     1
370
    15
100
AcDbText
 10
126.3633155822754
 20
205.4999923706055
 30
0.0
 40
1.9375
  1
5-6-4 - -
 41
0.9659999561309813
  7
Arial
100
AcDbAttribute
  2
$REFCRO00003
 70
     0
  0
SEQEND
  5
26C
330
202
100
AcDbEntity
  8
A
  6
Fin
 62
     0
370
    15
  0
INSERT
  5
26B
330
1F
100
AcDbEntity
  8
A
  6
Fin
 62
     0
370
    15
100
AcDbBlockReference
 66
     1
  2
CONSOLE_IHM_C_CONSOLE_0_5_0
 10
385.0
 20
120.0
 30
0.0
  0
ATTRIB
  5
26D
330
26B
100
AcDbEntity
  8
A
  6
Fin
 62
     3
370
    15
100
AcDbText
 10
366.3897705078125
 20
107.7500057220459
 30
0.0
 40
2.90625
  1
-A32
 41
0.9659999561309813
  7
Arial
100
AcDbAttribute
  2
$ETIQUETTE
 70
     0
  0
ATTRIB
  5
26E
330
26B
100
AcDbEntity
  8
A
  6
Fin
 62
     1
370
    15
100
AcDbText
 10
390.9999847412109
 20
101.4999961853027
 30
0.0
 40
1.9375
  1
+
 41
0.9659999561309813
  7
Arial
100
AcDbAttribute
  2
$PL:1
 70
     0
  0
ATTRIB
  5
26F
330
26B
100
AcDbEntity
  8
A
  6
Fin
 62
     1
370
    15
100
AcDbText
 10
384.3286514282227
 20
120.2843761444092
 30
0.0
 40
1.9375
  1
SUBD9
 41
0.9659999561309813
  7
Arial
100
AcDbAttribute
  2
$PL:2
 70
     0
  0
ATTRIB
  5
270
330
26B
100
AcDbEntity
  8
A
  6
Fin
 62
     1
370
    15
100
AcDbText
 10
380.9999847412109
 20
101.4999961853027
 30
0.0
 40
1.9375
  1
-
 41
0.9659999561309813
  7
Arial
100
AcDbAttribute
  2
$PL:3
 70
     0
  0
ATTRIB
  5
271
330
26B
100
AcDbEntity
  8
B
  6
Fin
 62
     1
370
    15
100
AcDbText
 10
385.9999847412109
 20
101.7500019073486
 30
0.0
 40
1.614583333333333
  1
P.E
 41
0.9659999561309813
  7
Arial
100
AcDbAttribute
  2
$PL:4
 70
     0
  0
SEQEND
  5
27E
330
26B
100
AcDbEntity
  8
A
  6
Fin
 62
     0
370
    15
  0
INSERT
  5
27D
330
1F
100
AcDbEntity
  8
A
  6
Fin
 62
     0
370
    15
100
AcDbBlockReference
 66
     1
  2
048C0_003_0_5_0
 10
385.0
 20
130.0
 30
0.0
 50
90.0
  0
ATTRIB
  5
27F
330
27D
100
AcDbEntity
  8
A
  6
Fin
 62
     1
370
    15
100
AcDbText
 10
383.9999771118164
 20
131.25
 30
0.0
 40
1.9375
  1
0.00 mm2
 50
90.0
 41
0.9659999561309813
  7
Arial
100
AcDbAttribute
  2
$WD:ATR18:W1
 70
     1
  0
SEQEND
  5
284
330
27D
100
AcDbEntity
  8
A
  6
Fin
 62
     0
370
    15
  0
INSERT
  5
283
330
1F
100
AcDbEntity
  8
A
  6
Fin
 62
     0
370
    15
100
AcDbBlockReference
  2
Assoc_1
 10
385.0
 20
110.0
 30
0.0
  0
TEXT
  5
285
330
1F
100
AcDbEntity
  8
B
  6
Fin
 62
     1
370
    15
100
AcDbText
 10
362.1551132202148
 20
114.0000057220459
 30
0.0
 40
2.583333333333333
  1
MD3SUI
 41
0.9659999561309813
  7
Arial
100
AcDbText
  0
TEXT
  5
286
330
1F
100
AcDbEntity
  8
B
  6
Fin
 62
     1
370
    15
100
AcDbText
 10
50.06896495819092
 20
188.5000038146973
 30
0.0
 40
1.9375
  1
1  24V
 41
0.9659999561309813
  7
Arial
100
AcDbText
  0
TEXT
  5
287
330
1F
100
AcDbEntity
  8
B
  6
Fin
 62
     1
370
    15
100
AcDbText
 10
49.82367038726807
 20
178.4999942779541
 30
0.0
 40
1.9375
  1
2  0V
 41
0.9659999561309813
  7
Arial
100
AcDbText
  0
TEXT
  5
288
330
1F
100
AcDbEntity
  8
B
  6
Fin
 62
     1
370
    15
100
AcDbText
 10
50.06896495819092
 20
168.4999942779541
 30
0.0
 40
1.9375
  1
3  24V
 41
0.9659999561309813
  7
Arial
100
AcDbText
  0
TEXT
  5
289
330
1F
100
AcDbEntity
  8
B
  6
Fin
 62
     1
370
    15
100
AcDbText
 10
49.82366561889648
 20
158.4999942779541
 30
0.0
 40
1.9375
  1
4  0V
 41
0.9659999561309813
  7
Arial
100
AcDbText
  0
ENDSEC
  0
SECTION
  2
OBJECTS
  0
DICTIONARY
  5
C
330
0
100
AcDbDictionary
281
     1
  3
ACAD_GROUP
350
D
  3
ACAD_IMAGE_DICT
350
EA
  3
ACAD_IMAGE_VARS
350
EC
  3
ACAD_LAYOUT
350
1A
  3
ACAD_MATERIAL
350
43
  3
ACAD_MLEADERSTYLE
350
6B
  3
ACAD_MLINESTYLE
350
17
  3
ACAD_PLOTSETTINGS
350
19
  3
ACAD_PLOTSTYLENAME
350
E
  3
ACAD_SCALELIST
350
47
  3
ACAD_TABLESTYLE
350
69
  3
ACAD_VISUALSTYLE
350
2A
  3
AcDbVariableDictionary
350
28A
  0
DICTIONARY
  5
291
330
8
100
AcDbDictionary
280
     1
281
     1
  3
ACAD_XREC_ROUNDTRIP
360
292
  0
IMAGEDEF_REACTOR
  5
EE
330
ED
100
AcDbRasterImageDefReactor
 90
        2
330
ED
  0
IMAGEDEF_REACTOR
  5
F1
330
F0
100
AcDbRasterImageDefReactor
 90
        2
330
F0
  0
DICTIONARY
  5
D
102
{ACAD_REACTORS
330
C
102
}
330
C
100
AcDbDictionary
281
     1
  0
DICTIONARY
  5
EA
102
{ACAD_REACTORS
330
C
102
}
330
C
100
AcDbDictionary
281
     1
  3
Leroy_Somer_jpg
350
EF
  3
nidec_jpg
350
EB
  0
RASTERVARIABLES
  5
EC
102
{ACAD_REACTORS
330
C
102
}
330
C
100
AcDbRasterVariables
 90
        0
 70
     1
 71
     1
 72
     1
  0
DICTIONARY
  5
1A
102
{ACAD_REACTORS
330
C
102
}
330
C
100
AcDbDictionary
281
     1
  3
Layout1
350
1E
  3
Layout2
350
26
  3
Model
350
22
  0
DICTIONARY
  5
43
102
{ACAD_REACTORS
330
C
102
}
330
C
100
AcDbDictionary
281
     1
  3
ByBlock
350
45
  3
ByLayer
350
44
  3
Global
350
46
  0
DICTIONARY
  5
6B
102
{ACAD_REACTORS
330
C
102
}
330
C
100
AcDbDictionary
281
     1
  3
Standard
350
6C
  0
DICTIONARY
  5
17
102
{ACAD_REACTORS
330
C
102
}
330
C
100
AcDbDictionary
281
     1
  3
Standard
350
18
  0
DICTIONARY
  5
19
102
{ACAD_REACTORS
330
C
102
}
330
C
100
AcDbDictionary
281
     1
  0
ACDBDICTIONARYWDFLT
  5
E
102
{ACAD_REACTORS
330
C
102
}
330
C
100
AcDbDictionary
281
     1
  3
Normal
350
F
100
AcDbDictionaryWithDefault
340
F
  0
DICTIONARY
  5
47
102
{ACAD_REACTORS
330
C
102
}
330
C
100
AcDbDictionary
281
     1
  3
A0
350
48
  3
A1
350
49
  3
A2
350
4A
  3
A3
350
4B
  3
A4
350
4C
  3
A5
350
4D
  3
A6
350
4E
  3
A7
350
4F
  3
A8
350
50
  3
A9
350
51
  3
B0
350
52
  3
B1
350
53
  3
B2
350
54
  3
B3
350
55
  3
B4
350
56
  3
B5
350
57
  3
B6
350
58
  3
B7
350
59
  3
B8
350
5A
  3
B9
350
5B
  3
C0
350
5C
  3
C1
350
5D
  3
C2
350
5E
  3
C3
350
5F
  3
C4
350
60
  3
C5
350
61
  3
C6
350
62
  3
C7
350
63
  3
C8
350
64
  3
C9
350
65
  3
D0
350
66
  3
D1
350
67
  3
D2
350
68
  0
DICTIONARY
  5
69
102
{ACAD_REACTORS
330
C
102
}
330
C
100
AcDbDictionary
281
     1
  3
Standard
350
6A
  0
DICTIONARY
  5
2A
102
{ACAD_REACTORS
330
C
102
}
330
C
100
AcDbDictionary
281
     1
  3
2dWireframe
350
2F
  3
Basic
350
32
  3
Brighten
350
36
  3
ColorChange
350
3A
  3
Conceptual
350
34
  3
Dim
350
35
  3
EdgeColorOff
350
3D
  3
Facepattern
350
39
  3
Flat
350
2B
  3
FlatWithEdges
350
2C
  3
Gouraud
350
2D
  3
GouraudWithEdges
350
2E
  3
Hidden
350
31
  3
JitterOff
350
3B
  3
Linepattern
350
38
  3
OverhangOff
350
3C
  3
Realistic
350
33
  3
Shaded
350
42
  3
Shaded with edges
350
41
  3
Shades of Gray
350
3E
  3
Sketchy
350
3F
  3
Thicken
350
37
  3
Wireframe
350
30
  3
X-Ray
350
40
  0
DICTIONARY
  5
28A
102
{ACAD_REACTORS
330
C
102
}
330
C
100
AcDbDictionary
281
     1
  3
CANNOSCALE
350
293
  3
CMLEADERSTYLE
350
28C
  3
CTABLESTYLE
350
28B
  3
DIMASSOC
350
28F
  3
HIDETEXT
350
290
  3
MSLTSCALE
350
294
  0
XRECORD
  5
292
102
{ACAD_REACTORS
330
291
102
}
330
291
100
AcDbXrecord
280
     1
102
VTR_0.000_0.000_1.000_1.000_VISUALSTYLE
340
2F
102
VTR_0.000_0.000_1.000_1.000_GRIDDISPLAY
 70
     3
102
VTR_0.000_0.000_1.000_1.000_GRIDMAJOR
 70
     5
102
VTR_0.000_0.000_1.000_1.000_DEFAULTLIGHTING
280
     1
102
VTR_0.000_0.000_1.000_1.000_DEFAULTLIGHTINGTYPE
 70
     1
102
VTR_0.000_0.000_1.000_1.000_BRIGHTNESS
141
0.0
102
VTR_0.000_0.000_1.000_1.000_CONTRAST
142
0.0
  0
IMAGEDEF
  5
EF
102
{ACAD_REACTORS
330
EA
330
F1
102
}
330
EA
100
AcDbRasterImageDef
 90
        0
  1
Leroy_Somer.jpg
 10
1511.0
 20
156.0
 11
0.0006618133686300463
 21
0.0006618133686300463
280
     1
281
     1
  0
IMAGEDEF
  5
EB
102
{ACAD_REACTORS
330
EA
330
EE
102
}
330
EA
100
AcDbRasterImageDef
 90
        0
  1
nidec.jpg
 10
368.0
 20
170.0
 11
0.002717391304347826
 21
0.002717391304347826
280
     1
281
     1
  0
LAYOUT
  5
1E
102
{ACAD_REACTORS
330
1A
102
}
330
1A
100
AcDbPlotSettings
  1

  2
none_device
  4

  6

 40
0.0
 41
0.0
 42
0.0
 43
0.0
 44
0.0
 45
0.0
 46
0.0
 47
0.0
 48
0.0
 49
0.0
140
0.0
141
0.0
142
1.0
143
1.0
 70
   688
 72
     0
 73
     0
 74
     5
  7

 75
    16
147
1.0
148
0.0
149
0.0
100
AcDbLayout
  1
Layout1
 70
     1
 71
     1
 10
0.0
 20
0.0
 11
415.0
 21
297.0
 12
0.0
 22
0.0
 32
0.0
 14
0.0
 24
0.0
 34
0.0
 15
415.0
 25
297.0
 35
0.0
146
0.0
 13
0.0
 23
0.0
 33
0.0
 16
1.0
 26
0.0
 36
0.0
 17
0.0
 27
1.0
 37
0.0
 76
     0
330
1B
  0
LAYOUT
  5
26
102
{ACAD_REACTORS
330
1A
102
}
330
1A
100
AcDbPlotSettings
  1

  2
none_device
  4

  6

 40
0.0
 41
0.0
 42
0.0
 43
0.0
 44
0.0
 45
0.0
 46
0.0
 47
0.0
 48
0.0
 49
0.0
140
0.0
141
0.0
142
1.0
143
1.0
 70
   688
 72
     0
 73
     0
 74
     5
  7

 75
    16
147
1.0
148
0.0
149
0.0
100
AcDbLayout
  1
Layout2
 70
     1
 71
     2
 10
0.0
 20
0.0
 11
0.0
 21
0.0
 12
0.0
 22
0.0
 32
0.0
 14
0.0
 24
0.0
 34
0.0
 15
0.0
 25
0.0
 35
0.0
146
0.0
 13
0.0
 23
0.0
 33
0.0
 16
1.0
 26
0.0
 36
0.0
 17
0.0
 27
1.0
 37
0.0
 76
     0
330
23
  0
LAYOUT
  5
22
102
{ACAD_REACTORS
330
1A
102
}
330
1A
100
AcDbPlotSettings
  1

  2
none_device
  4
Letter_(8.50_x_11.00_Inches)
  6

 40
6.35
 41
6.35
 42
6.35000508
 43
6.35000508
 44
215.9
 45
279.4
 46
0.0
 47
0.0
 48
0.0
 49
0.0
140
0.0
141
0.0
142
1.0
143
1.0
 70
  1712
 72
     0
 73
     0
 74
     0
  7

 75
     0
147
1.0
148
0.0
149
0.0
100
AcDbLayout
  1
Model
 70
     1
 71
     0
 10
0.0
 20
0.0
 11
415.0
 21
297.0
 12
0.0
 22
0.0
 32
0.0
 14
0.0
 24
0.0
 34
0.0
 15
415.0
 25
297.0
 35
0.0
146
0.0
 13
0.0
 23
0.0
 33
0.0
 16
1.0
 26
0.0
 36
0.0
 17
0.0
 27
1.0
 37
0.0
 76
     0
330
1F
331
29
  0
MATERIAL
  5
45
102
{ACAD_REACTORS
330
43
102
}
102
{ACAD_XDICTIONARY
360
2C7
102
}
330
43
100
AcDbMaterial
  1
ByBlock
  0
MATERIAL
  5
44
102
{ACAD_REACTORS
330
43
102
}
102
{ACAD_XDICTIONARY
360
2C5
102
}
330
43
100
AcDbMaterial
  1
ByLayer
  0
MATERIAL
  5
46
102
{ACAD_REACTORS
330
43
102
}
102
{ACAD_XDICTIONARY
360
2C9
102
}
330
43
100
AcDbMaterial
  1
Global
  0
MLEADERSTYLE
  5
6C
102
{ACAD_REACTORS
330
6B
102
}
102
{ACAD_XDICTIONARY
360
2CC
102
}
330
6B
100
AcDbMLeaderStyle
170
     2
171
     1
172
     0
 90
        2
 40
0.0
 41
0.0
173
     1
 91
-1056964608
340
14
 92
       -2
290
     1
 42
0.09
291
     1
 43
0.36
  3
Standard
341
0
 44
0.18
300

342
11
174
     1
178
     6
175
     1
176
     0
 93
-1056964608
 45
0.18
292
     0
297
     0
 46
0.18
343
0
 94
-1056964608
 47
1.0
 49
1.0
140
1.0
293
     1
141
0.0
294
     1
177
     0
142
1.0
295
     0
296
     0
143
0.125
1001
ACAD_MLEADERVER
1070
     2
  0
MLINESTYLE
  5
18
102
{ACAD_REACTORS
330
17
102
}
330
17
100
AcDbMlineStyle
  2
Standard
 70
     0
  3

 62
   256
 51
90.0
 52
90.0
 71
     2
 49
0.5
 62
   256
  6
BYLAYER
 49
-0.5
 62
   256
  6
BYLAYER
  0
ACDBPLACEHOLDER
  5
F
102
{ACAD_REACTORS
330
E
102
}
330
E
  0
SCALE
  5
48
102
{ACAD_REACTORS
330
47
102
}
330
47
100
AcDbScale
 70
     0
300
1:1
140
1.0
141
1.0
290
     1
  0
SCALE
  5
49
102
{ACAD_REACTORS
330
47
102
}
330
47
100
AcDbScale
 70
     0
300
1:2
140
1.0
141
2.0
290
     0
  0
SCALE
  5
4A
102
{ACAD_REACTORS
330
47
102
}
330
47
100
AcDbScale
 70
     0
300
1:4
140
1.0
141
4.0
290
     0
  0
SCALE
  5
4B
102
{ACAD_REACTORS
330
47
102
}
330
47
100
AcDbScale
 70
     0
300
1:5
140
1.0
141
5.0
290
     0
  0
SCALE
  5
4C
102
{ACAD_REACTORS
330
47
102
}
330
47
100
AcDbScale
 70
     0
300
1:8
140
1.0
141
8.0
290
     0
  0
SCALE
  5
4D
102
{ACAD_REACTORS
330
47
102
}
330
47
100
AcDbScale
 70
     0
300
1:10
140
1.0
141
10.0
290
     0
  0
SCALE
  5
4E
102
{ACAD_REACTORS
330
47
102
}
330
47
100
AcDbScale
 70
     0
300
1:16
140
1.0
141
16.0
290
     0
  0
SCALE
  5
4F
102
{ACAD_REACTORS
330
47
102
}
330
47
100
AcDbScale
 70
     0
300
1:20
140
1.0
141
20.0
290
     0
  0
SCALE
  5
50
102
{ACAD_REACTORS
330
47
102
}
330
47
100
AcDbScale
 70
     0
300
1:30
140
1.0
141
30.0
290
     0
  0
SCALE
  5
51
102
{ACAD_REACTORS
330
47
102
}
330
47
100
AcDbScale
 70
     0
300
1:40
140
1.0
141
40.0
290
     0
  0
SCALE
  5
52
102
{ACAD_REACTORS
330
47
102
}
330
47
100
AcDbScale
 70
     0
300
1:50
140
1.0
141
50.0
290
     0
  0
SCALE
  5
53
102
{ACAD_REACTORS
330
47
102
}
330
47
100
AcDbScale
 70
     0
300
1:100
140
1.0
141
100.0
290
     0
  0
SCALE
  5
54
102
{ACAD_REACTORS
330
47
102
}
330
47
100
AcDbScale
 70
     0
300
2:1
140
2.0
141
1.0
290
     0
  0
SCALE
  5
55
102
{ACAD_REACTORS
330
47
102
}
330
47
100
AcDbScale
 70
     0
300
4:1
140
4.0
141
1.0
290
     0
  0
SCALE
  5
56
102
{ACAD_REACTORS
330
47
102
}
330
47
100
AcDbScale
 70
     0
300
8:1
140
8.0
141
1.0
290
     0
  0
SCALE
  5
57
102
{ACAD_REACTORS
330
47
102
}
330
47
100
AcDbScale
 70
     0
300
10:1
140
10.0
141
1.0
290
     0
  0
SCALE
  5
58
102
{ACAD_REACTORS
330
47
102
}
330
47
100
AcDbScale
 70
     0
300
100:1
140
100.0
141
1.0
290
     0
  0
SCALE
  5
59
102
{ACAD_REACTORS
330
47
102
}
330
47
100
AcDbScale
 70
     0
300
1/128" = 1'-0"
140
0.0078125
141
12.0
290
     0
  0
SCALE
  5
5A
102
{ACAD_REACTORS
330
47
102
}
330
47
100
AcDbScale
 70
     0
300
1/64" = 1'-0"
140
0.015625
141
12.0
290
     0
  0
SCALE
  5
5B
102
{ACAD_REACTORS
330
47
102
}
330
47
100
AcDbScale
 70
     0
300
1/32" = 1'-0"
140
0.03125
141
12.0
290
     0
  0
SCALE
  5
5C
102
{ACAD_REACTORS
330
47
102
}
330
47
100
AcDbScale
 70
     0
300
1/16" = 1'-0"
140
0.0625
141
12.0
290
     0
  0
SCALE
  5
5D
102
{ACAD_REACTORS
330
47
102
}
330
47
100
AcDbScale
 70
     0
300
3/32" = 1'-0"
140
0.09375
141
12.0
290
     0
  0
SCALE
  5
5E
102
{ACAD_REACTORS
330
47
102
}
330
47
100
AcDbScale
 70
     0
300
1/8" = 1'-0"
140
0.125
141
12.0
290
     0
  0
SCALE
  5
5F
102
{ACAD_REACTORS
330
47
102
}
330
47
100
AcDbScale
 70
     0
300
3/16" = 1'-0"
140
0.1875
141
12.0
290
     0
  0
SCALE
  5
60
102
{ACAD_REACTORS
330
47
102
}
330
47
100
AcDbScale
 70
     0
300
1/4" = 1'-0"
140
0.25
141
12.0
290
     0
  0
SCALE
  5
61
102
{ACAD_REACTORS
330
47
102
}
330
47
100
AcDbScale
 70
     0
300
3/8" = 1'-0"
140
0.375
141
12.0
290
     0
  0
SCALE
  5
62
102
{ACAD_REACTORS
330
47
102
}
330
47
100
AcDbScale
 70
     0
300
1/2" = 1'-0"
140
0.5
141
12.0
290
     0
  0
SCALE
  5
63
102
{ACAD_REACTORS
330
47
102
}
330
47
100
AcDbScale
 70
     0
300
3/4" = 1'-0"
140
0.75
141
12.0
290
     0
  0
SCALE
  5
64
102
{ACAD_REACTORS
330
47
102
}
330
47
100
AcDbScale
 70
     0
300
1" = 1'-0"
140
1.0
141
12.0
290
     0
  0
SCALE
  5
65
102
{ACAD_REACTORS
330
47
102
}
330
47
100
AcDbScale
 70
     0
300
1-1/2" = 1'-0"
140
1.5
141
12.0
290
     0
  0
SCALE
  5
66
102
{ACAD_REACTORS
330
47
102
}
330
47
100
AcDbScale
 70
     0
300
3" = 1'-0"
140
3.0
141
12.0
290
     0
  0
SCALE
  5
67
102
{ACAD_REACTORS
330
47
102
}
330
47
100
AcDbScale
 70
     0
300
6" = 1'-0"
140
6.0
141
12.0
290
     0
  0
SCALE
  5
68
102
{ACAD_REACTORS
330
47
102
}
330
47
100
AcDbScale
 70
     0
300
1'-0" = 1'-0"
140
12.0
141
12.0
290
     0
  0
TABLESTYLE
  5
6A
102
{ACAD_REACTORS
330
69
102
}
330
69
100
AcDbTableStyle
  3
Standard
 70
     0
 71
     0
 40
0.06
 41
0.06
280
     0
281
     0
  7
Standard
140
0.18
170
     2
 62
     0
 63
   257
283
     0
274
    -2
284
     1
 64
     0
275
    -2
285
     1
 65
     0
276
    -2
286
     1
 66
     0
277
    -2
287
     1
 67
     0
278
    -2
288
     1
 68
     0
279
    -2
289
     1
 69
     0
  7
Standard
140
0.25
170
     5
 62
     0
 63
   257
283
     0
274
    -2
284
     1
 64
     0
275
    -2
285
     1
 65
     0
276
    -2
286
     1
 66
     0
277
    -2
287
     1
 67
     0
278
    -2
288
     1
 68
     0
279
    -2
289
     1
 69
     0
  7
Standard
140
0.18
170
     5
 62
     0
 63
   257
283
     0
274
    -2
284
     1
 64
     0
275
    -2
285
     1
 65
     0
276
    -2
286
     1
 66
     0
277
    -2
287
     1
 67
     0
278
    -2
288
     1
 68
     0
279
    -2
289
     1
 69
     0
  0
VISUALSTYLE
  5
2F
102
{ACAD_REACTORS
330
2A
102
}
102
{ACAD_XDICTIONARY
360
29D
102
}
330
2A
100
AcDbVisualStyle
  2
2dWireframe
 70
     4
 71
     0
 72
     2
 73
     0
 90
        0
 40
0.6
 41
30.0
 62
     5
 63
     7
 74
     1
 91
        4
 64
     7
 65
   257
 75
     1
175
     1
 42
1.0
 92
        0
 66
   257
 43
1.0
 76
     1
 77
     6
 78
     2
 67
     7
 79
     5
170
     0
171
     0
290
     0
174
     0
 93
        1
 44
0.0
173
     0
291
     0
 45
0.0
1001
ACAD
1000
AcDbSavedByObjectVersion
1070
     0
  0
VISUALSTYLE
  5
32
102
{ACAD_REACTORS
330
2A
102
}
102
{ACAD_XDICTIONARY
360
2A3
102
}
330
2A
100
AcDbVisualStyle
  2
Basic
 70
     7
 71
     1
 72
     0
 73
     1
 90
        0
 40
0.6
 41
30.0
 62
     5
 63
     7
 74
     0
 91
        4
 64
     7
 65
   257
 75
     1
175
     1
 42
1.0
 92
        8
 66
     7
 43
1.0
 76
     1
 77
     6
 78
     2
 67
     7
 79
     5
170
     0
171
     0
290
     0
174
     0
 93
        1
 44
0.0
173
     0
291
     1
 45
0.0
1001
ACAD
1000
AcDbSavedByObjectVersion
1070
     0
  0
VISUALSTYLE
  5
36
102
{ACAD_REACTORS
330
2A
102
}
102
{ACAD_XDICTIONARY
360
2AB
102
}
330
2A
100
AcDbVisualStyle
  2
Brighten
 70
    12
 71
     2
 72
     2
 73
     0
 90
        0
 40
0.6
 41
30.0
 62
     5
 63
     7
 74
     1
 91
        4
 64
     7
 65
   257
 75
     1
175
     1
 42
1.0
 92
        8
 66
     7
 43
1.0
 76
     1
 77
     6
 78
     2
 67
     7
 79
     5
170
     0
171
     0
290
     0
174
     0
 93
        1
 44
50.0
173
     0
291
     1
 45
0.0
1001
ACAD
1000
AcDbSavedByObjectVersion
1070
     0
  0
VISUALSTYLE
  5
3A
102
{ACAD_REACTORS
330
2A
102
}
102
{ACAD_XDICTIONARY
360
2B3
102
}
330
2A
100
AcDbVisualStyle
  2
ColorChange
 70
    16
 71
     2
 72
     2
 73
     3
 90
        0
 40
0.6
 41
30.0
 62
     5
 63
     8
 74
     1
 91
        4
 64
     7
 65
   257
 75
     1
175
     1
 42
1.0
 92
        8
 66
     8
 43
1.0
 76
     1
 77
     6
 78
     2
 67
     7
 79
     5
170
     0
171
     0
290
     0
174
     0
 93
        1
 44
0.0
173
     0
291
     1
 45
0.0
1001
ACAD
1000
AcDbSavedByObjectVersion
1070
     0
  0
VISUALSTYLE
  5
34
102
{ACAD_REACTORS
330
2A
102
}
102
{ACAD_XDICTIONARY
360
2A7
102
}
330
2A
100
AcDbVisualStyle
  2
Conceptual
 70
     9
 71
     3
 72
     2
 73
     0
 90
        0
 40
0.6
 41
30.0
 62
     5
 63
     7
 74
     2
 91
        2
 64
     7
 65
   257
 75
     1
175
     1
 42
179.0
 92
        8
 66
     7
 43
1.0
 76
     1
 77
     6
 78
     2
 67
     7
 79
     3
170
     0
171
     0
290
     0
174
     0
 93
        1
 44
0.0
173
     0
291
     0
 45
0.0
1001
ACAD
1000
AcDbSavedByObjectVersion
1070
     0
  0
VISUALSTYLE
  5
35
102
{ACAD_REACTORS
330
2A
102
}
102
{ACAD_XDICTIONARY
360
2A9
102
}
330
2A
100
AcDbVisualStyle
  2
Dim
 70
    11
 71
     2
 72
     2
 73
     0
 90
        0
 40
0.6
 41
30.0
 62
     5
 63
     7
 74
     1
 91
        4
 64
     7
 65
   257
 75
     1
175
     1
 42
1.0
 92
        8
 66
     7
 43
1.0
 76
     1
 77
     6
 78
     2
 67
     7
 79
     5
170
     0
171
     0
290
     0
174
     0
 93
        1
 44
-50.0
173
     0
291
     1
 45
0.0
1001
ACAD
1000
AcDbSavedByObjectVersion
1070
     0
  0
VISUALSTYLE
  5
3D
102
{ACAD_REACTORS
330
2A
102
}
102
{ACAD_XDICTIONARY
360
2B9
102
}
330
2A
100
AcDbVisualStyle
  2
EdgeColorOff
 70
    22
 71
     2
 72
     2
 73
     0
 90
        0
 40
0.6
 41
30.0
 62
     5
 63
     7
 74
     1
 91
        4
 64
     7
 65
   257
 75
     1
175
     1
 42
1.0
 92
        8
 66
     7
 43
1.0
 76
     1
 77
     6
 78
     2
 67
     7
 79
     5
170
     0
171
     0
290
     0
174
     0
 93
        1
 44
0.0
173
     0
291
     1
 45
0.0
1001
ACAD
1000
AcDbSavedByObjectVersion
1070
     0
  0
VISUALSTYLE
  5
39
102
{ACAD_REACTORS
330
2A
102
}
102
{ACAD_XDICTIONARY
360
2B1
102
}
330
2A
100
AcDbVisualStyle
  2
Facepattern
 70
    15
 71
     2
 72
     2
 73
     0
 90
        0
 40
0.6
 41
30.0
 62
     5
 63
     7
 74
     1
 91
        4
 64
     7
 65
   257
 75
     1
175
     1
 42
1.0
 92
        8
 66
     7
 43
1.0
 76
     1
 77
     6
 78
     2
 67
     7
 79
     5
170
     0
171
     0
290
     0
174
     0
 93
        1
 44
0.0
173
     0
291
     1
 45
0.0
1001
ACAD
1000
AcDbSavedByObjectVersion
1070
     0
  0
VISUALSTYLE
  5
2B
102
{ACAD_REACTORS
330
2A
102
}
102
{ACAD_XDICTIONARY
360
295
102
}
330
2A
100
AcDbVisualStyle
  2
Flat
 70
     0
 71
     2
 72
     1
 73
     1
 90
        2
 40
0.6
 41
30.0
 62
     5
 63
     7
 74
     0
 91
        0
 64
     7
 65
   257
 75
     1
175
     1
 42
1.0
 92
        8
 66
     7
 43
1.0
 76
     1
 77
     6
 78
     2
 67
     7
 79
     5
170
     0
171
     0
290
     0
174
     0
 93
       13
 44
0.0
173
     0
291
     1
 45
0.0
1001
ACAD
1000
AcDbSavedByObjectVersion
1070
     0
  0
VISUALSTYLE
  5
2C
102
{ACAD_REACTORS
330
2A
102
}
102
{ACAD_XDICTIONARY
360
297
102
}
330
2A
100
AcDbVisualStyle
  2
FlatWithEdges
 70
     1
 71
     2
 72
     1
 73
     1
 90
        2
 40
0.6
 41
30.0
 62
     5
 63
     7
 74
     1
 91
        0
 64
     7
 65
   257
 75
     1
175
     1
 42
1.0
 92
        0
 66
   257
 43
1.0
 76
     1
 77
     6
 78
     2
 67
     7
 79
     5
170
     0
171
     0
290
     0
174
     0
 93
       13
 44
0.0
173
     0
291
     1
 45
0.0
1001
ACAD
1000
AcDbSavedByObjectVersion
1070
     0
  0
VISUALSTYLE
  5
2D
102
{ACAD_REACTORS
330
2A
102
}
102
{ACAD_XDICTIONARY
360
299
102
}
330
2A
100
AcDbVisualStyle
  2
Gouraud
 70
     2
 71
     2
 72
     2
 73
     1
 90
        2
 40
0.6
 41
30.0
 62
     5
 63
     7
 74
     0
 91
        0
 64
     7
 65
   257
 75
     1
175
     1
 42
1.0
 92
        0
 66
     7
 43
1.0
 76
     1
 77
     6
 78
     2
 67
     7
 79
     5
170
     0
171
     0
290
     0
174
     0
 93
       13
 44
0.0
173
     0
291
     1
 45
0.0
1001
ACAD
1000
AcDbSavedByObjectVersion
1070
     0
  0
VISUALSTYLE
  5
2E
102
{ACAD_REACTORS
330
2A
102
}
102
{ACAD_XDICTIONARY
360
29B
102
}
330
2A
100
AcDbVisualStyle
  2
GouraudWithEdges
 70
     3
 71
     2
 72
     2
 73
     1
 90
        2
 40
0.6
 41
30.0
 62
     5
 63
     7
 74
     1
 91
        0
 64
     7
 65
   257
 75
     1
175
     1
 42
1.0
 92
        0
 66
   257
 43
1.0
 76
     1
 77
     6
 78
     2
 67
     7
 79
     5
170
     0
171
     0
290
     0
174
     0
 93
       13
 44
0.0
173
     0
291
     1
 45
0.0
1001
ACAD
1000
AcDbSavedByObjectVersion
1070
     0
  0
VISUALSTYLE
  5
31
102
{ACAD_REACTORS
330
2A
102
}
102
{ACAD_XDICTIONARY
360
2A1
102
}
330
2A
100
AcDbVisualStyle
  2
Hidden
 70
     6
 71
     1
 72
     2
 73
     2
 90
        0
 40
0.6
 41
30.0
 62
     5
 63
     7
 74
     2
 91
        2
 64
     7
 65
   257
 75
     2
175
     1
 42
40.0
 92
        0
 66
   257
 43
1.0
 76
     1
 77
     6
 78
     2
 67
     7
 79
     3
170
     0
171
     0
290
     0
174
     0
 93
        1
 44
0.0
173
     0
291
     0
 45
0.0
1001
ACAD
1000
AcDbSavedByObjectVersion
1070
     0
  0
VISUALSTYLE
  5
3B
102
{ACAD_REACTORS
330
2A
102
}
102
{ACAD_XDICTIONARY
360
2B5
102
}
330
2A
100
AcDbVisualStyle
  2
JitterOff
 70
    20
 71
     2
 72
     2
 73
     0
 90
        0
 40
0.6
 41
30.0
 62
     5
 63
     7
 74
     1
 91
        4
 64
     7
 65
   257
 75
     1
175
     1
 42
1.0
 92
       10
 66
     7
 43
1.0
 76
     1
 77
     6
 78
     2
 67
     7
 79
     5
170
     0
171
     0
290
     0
174
     0
 93
        1
 44
0.0
173
     0
291
     1
 45
0.0
1001
ACAD
1000
AcDbSavedByObjectVersion
1070
     0
  0
VISUALSTYLE
  5
38
102
{ACAD_REACTORS
330
2A
102
}
102
{ACAD_XDICTIONARY
360
2AF
102
}
330
2A
100
AcDbVisualStyle
  2
Linepattern
 70
    14
 71
     2
 72
     2
 73
     0
 90
        0
 40
0.6
 41
30.0
 62
     5
 63
     7
 74
     1
 91
        4
 64
     7
 65
   257
 75
     7
175
     7
 42
1.0
 92
        8
 66
     7
 43
1.0
 76
     1
 77
     6
 78
     2
 67
     7
 79
     5
170
     0
171
     0
290
     0
174
     0
 93
        1
 44
0.0
173
     0
291
     1
 45
0.0
1001
ACAD
1000
AcDbSavedByObjectVersion
1070
     0
  0
VISUALSTYLE
  5
3C
102
{ACAD_REACTORS
330
2A
102
}
102
{ACAD_XDICTIONARY
360
2B7
102
}
330
2A
100
AcDbVisualStyle
  2
OverhangOff
 70
    21
 71
     2
 72
     2
 73
     0
 90
        0
 40
0.6
 41
30.0
 62
     5
 63
     7
 74
     1
 91
        4
 64
     7
 65
   257
 75
     1
175
     1
 42
1.0
 92
        9
 66
     7
 43
1.0
 76
     1
 77
     6
 78
     2
 67
     7
 79
     5
170
     0
171
     0
290
     0
174
     0
 93
        1
 44
0.0
173
     0
291
     1
 45
0.0
1001
ACAD
1000
AcDbSavedByObjectVersion
1070
     0
  0
VISUALSTYLE
  5
33
102
{ACAD_REACTORS
330
2A
102
}
102
{ACAD_XDICTIONARY
360
2A5
102
}
330
2A
100
AcDbVisualStyle
  2
Realistic
 70
     8
 71
     2
 72
     3
 73
     0
 90
        2
 40
0.6
 41
30.0
 62
     5
 63
     7
 74
     0
 91
        0
 64
     7
 65
   257
 75
     1
175
     1
 42
1.0
 92
        8
 66
   257
 43
1.0
 76
     1
 77
     6
 78
     2
 67
     7
 79
     3
170
     0
171
     0
290
     0
174
     0
 93
       13
 44
0.0
173
     0
291
     0
 45
0.0
1001
ACAD
1000
AcDbSavedByObjectVersion
1070
     0
  0
VISUALSTYLE
  5
42
102
{ACAD_REACTORS
330
2A
102
}
102
{ACAD_XDICTIONARY
360
2C3
102
}
330
2A
100
AcDbVisualStyle
  2
Shaded
 70
    27
 71
     2
 72
     2
 73
     1
 90
        2
 40
0.6
 41
30.0
 62
     5
 63
     7
 74
     0
 91
        4
 64
     7
 65
   257
 75
     1
175
     1
 42
1.0
 92
        8
 66
   257
 43
1.0
 76
     1
 77
     6
 78
     2
 67
     8
 79
     3
170
     0
171
     0
290
     0
174
     0
 93
        5
 44
0.0
173
     0
291
     0
 45
0.0
1001
ACAD
1000
AcDbSavedByObjectVersion
1070
     0
  0
VISUALSTYLE
  5
41
102
{ACAD_REACTORS
330
2A
102
}
102
{ACAD_XDICTIONARY
360
2C1
102
}
330
2A
100
AcDbVisualStyle
  2
Shaded with edges
 70
    26
 71
     2
 72
     2
 73
     1
 90
        2
 40
0.6
 41
30.0
 62
     5
 63
     7
 74
     1
 91
       10
 64
     7
 65
   257
 75
     2
175
     1
 42
1.0
 92
        8
 66
   257
 43
1.0
 76
     1
 77
     6
 78
     2
 67
     7
 79
     3
170
     0
171
     0
290
     0
174
     0
 93
        5
 44
0.0
173
     0
291
     0
 45
0.0
1001
ACAD
1000
AcDbSavedByObjectVersion
1070
     0
  0
VISUALSTYLE
  5
3E
102
{ACAD_REACTORS
330
2A
102
}
102
{ACAD_XDICTIONARY
360
2BB
102
}
330
2A
100
AcDbVisualStyle
  2
Shades of Gray
 70
    23
 71
     2
 72
     2
 73
     3
 90
        0
 40
0.6
 41
30.0
 62
     5
 63
     7
 74
     2
 91
        2
 64
     7
 65
     7
 75
     1
175
     1
 42
40.0
 92
        8
 66
     7
 43
1.0
 76
     1
 77
     6
 78
     2
 67
     7
 79
     3
170
     0
171
     0
290
     0
174
     0
 93
        1
 44
0.0
173
     0
291
     0
 45
0.0
1001
ACAD
1000
AcDbSavedByObjectVersion
1070
     0
  0
VISUALSTYLE
  5
3F
102
{ACAD_REACTORS
330
2A
102
}
102
{ACAD_XDICTIONARY
360
2BD
102
}
330
2A
100
AcDbVisualStyle
  2
Sketchy
 70
    24
 71
     1
 72
     2
 73
     2
 90
        0
 40
0.6
 41
30.0
 62
     5
 63
     7
 74
     2
 91
        2
 64
     7
 65
     7
 75
     1
175
     1
 42
40.0
 92
       11
 66
     7
 43
1.0
 76
     1
 77
     6
 78
     2
 67
     7
 79
     6
170
     0
171
     0
290
     0
174
     0
 93
        1
 44
0.0
173
     0
291
     0
 45
0.0
1001
ACAD
1000
AcDbSavedByObjectVersion
1070
     0
  0
VISUALSTYLE
  5
37
102
{ACAD_REACTORS
330
2A
102
}
102
{ACAD_XDICTIONARY
360
2AD
102
}
330
2A
100
AcDbVisualStyle
  2
Thicken
 70
    13
 71
     2
 72
     2
 73
     0
 90
        0
 40
0.6
 41
30.0
 62
     5
 63
     7
 74
     1
 91
        4
 64
     7
 65
   257
 75
     1
175
     1
 42
1.0
 92
       12
 66
     7
 43
1.0
 76
     1
 77
     6
 78
     2
 67
     7
 79
     5
170
     0
171
     0
290
     0
174
     0
 93
        1
 44
0.0
173
     0
291
     1
 45
0.0
1001
ACAD
1000
AcDbSavedByObjectVersion
1070
     0
  0
VISUALSTYLE
  5
30
102
{ACAD_REACTORS
330
2A
102
}
102
{ACAD_XDICTIONARY
360
29F
102
}
330
2A
100
AcDbVisualStyle
  2
Wireframe
 70
     5
 71
     0
 72
     2
 73
     0
 90
        0
 40
0.6
 41
30.0
 62
     5
 63
     7
 74
     1
 91
        4
 64
     7
 65
   257
 75
     1
175
     1
 42
1.0
 92
        0
 66
   257
 43
1.0
 76
     1
 77
     6
 78
     2
 67
     7
 79
     3
170
     0
171
     0
290
     0
174
     0
 93
        1
 44
0.0
173
     0
291
     0
 45
0.0
1001
ACAD
1000
AcDbSavedByObjectVersion
1070
     0
  0
VISUALSTYLE
  5
40
102
{ACAD_REACTORS
330
2A
102
}
102
{ACAD_XDICTIONARY
360
2BF
102
}
330
2A
100
AcDbVisualStyle
  2
X-Ray
 70
    25
 71
     2
 72
     2
 73
     1
 90
        1
 40
0.5
 41
30.0
 62
     5
 63
     7
 74
     1
 91
        0
 64
     7
 65
   257
 75
     1
175
     1
 42
1.0
 92
        8
 66
     7
 43
1.0
 76
     1
 77
     6
 78
     2
 67
     7
 79
     3
170
     0
171
     0
290
     0
174
     0
 93
       13
 44
0.0
173
     0
291
     0
 45
0.0
1001
ACAD
1000
AcDbSavedByObjectVersion
1070
     0
  0
DICTIONARYVAR
  5
293
102
{ACAD_REACTORS
330
28A
102
}
330
28A
100
DictionaryVariables
280
     0
  1
1:1
  0
DICTIONARYVAR
  5
28C
102
{ACAD_REACTORS
330
28A
102
}
330
28A
100
DictionaryVariables
280
     0
  1
Standard
  0
DICTIONARYVAR
  5
28B
102
{ACAD_REACTORS
330
28A
102
}
330
28A
100
DictionaryVariables
280
     0
  1
Standard
  0
DICTIONARYVAR
  5
28F
102
{ACAD_REACTORS
330
28A
102
}
330
28A
100
DictionaryVariables
280
     0
  1
2
  0
DICTIONARYVAR
  5
290
102
{ACAD_REACTORS
330
28A
102
}
330
28A
100
DictionaryVariables
280
     0
  1
1
  0
DICTIONARYVAR
  5
294
102
{ACAD_REACTORS
330
28A
102
}
330
28A
100
DictionaryVariables
280
     0
  1
1
  0
DICTIONARY
  5
2C7
330
45
100
AcDbDictionary
280
     1
281
     1
  3
ACAD_XREC_ROUNDTRIP
360
2C8
  0
DICTIONARY
  5
2C5
330
44
100
AcDbDictionary
280
     1
281
     1
  3
ACAD_XREC_ROUNDTRIP
360
2C6
  0
DICTIONARY
  5
2C9
330
46
100
AcDbDictionary
280
     1
281
     1
  3
ACAD_XREC_ROUNDTRIP
360
2CA
  0
DICTIONARY
  5
2CC
330
6C
100
AcDbDictionary
280
     1
281
     1
  3
ACAD_XREC_ROUNDTRIP
360
2CD
  0
DICTIONARY
  5
29D
330
2F
100
AcDbDictionary
280
     1
281
     1
  3
ACAD_XREC_ROUNDTRIP
360
29E
  0
DICTIONARY
  5
2A3
330
32
100
AcDbDictionary
280
     1
281
     1
  3
ACAD_XREC_ROUNDTRIP
360
2A4
  0
DICTIONARY
  5
2AB
330
36
100
AcDbDictionary
280
     1
281
     1
  3
ACAD_XREC_ROUNDTRIP
360
2AC
  0
DICTIONARY
  5
2B3
330
3A
100
AcDbDictionary
280
     1
281
     1
  3
ACAD_XREC_ROUNDTRIP
360
2B4
  0
DICTIONARY
  5
2A7
330
34
100
AcDbDictionary
280
     1
281
     1
  3
ACAD_XREC_ROUNDTRIP
360
2A8
  0
DICTIONARY
  5
2A9
330
35
100
AcDbDictionary
280
     1
281
     1
  3
ACAD_XREC_ROUNDTRIP
360
2AA
  0
DICTIONARY
  5
2B9
330
3D
100
AcDbDictionary
280
     1
281
     1
  3
ACAD_XREC_ROUNDTRIP
360
2BA
  0
DICTIONARY
  5
2B1
330
39
100
AcDbDictionary
280
     1
281
     1
  3
ACAD_XREC_ROUNDTRIP
360
2B2
  0
DICTIONARY
  5
295
330
2B
100
AcDbDictionary
280
     1
281
     1
  3
ACAD_XREC_ROUNDTRIP
360
296
  0
DICTIONARY
  5
297
330
2C
100
AcDbDictionary
280
     1
281
     1
  3
ACAD_XREC_ROUNDTRIP
360
298
  0
DICTIONARY
  5
299
330
2D
100
AcDbDictionary
280
     1
281
     1
  3
ACAD_XREC_ROUNDTRIP
360
29A
  0
DICTIONARY
  5
29B
330
2E
100
AcDbDictionary
280
     1
281
     1
  3
ACAD_XREC_ROUNDTRIP
360
29C
  0
DICTIONARY
  5
2A1
330
31
100
AcDbDictionary
280
     1
281
     1
  3
ACAD_XREC_ROUNDTRIP
360
2A2
  0
DICTIONARY
  5
2B5
330
3B
100
AcDbDictionary
280
     1
281
     1
  3
ACAD_XREC_ROUNDTRIP
360
2B6
  0
DICTIONARY
  5
2AF
330
38
100
AcDbDictionary
280
     1
281
     1
  3
ACAD_XREC_ROUNDTRIP
360
2B0
  0
DICTIONARY
  5
2B7
330
3C
100
AcDbDictionary
280
     1
281
     1
  3
ACAD_XREC_ROUNDTRIP
360
2B8
  0
DICTIONARY
  5
2A5
330
33
100
AcDbDictionary
280
     1
281
     1
  3
ACAD_XREC_ROUNDTRIP
360
2A6
  0
DICTIONARY
  5
2C3
330
42
100
AcDbDictionary
280
     1
281
     1
  3
ACAD_XREC_ROUNDTRIP
360
2C4
  0
DICTIONARY
  5
2C1
330
41
100
AcDbDictionary
280
     1
281
     1
  3
ACAD_XREC_ROUNDTRIP
360
2C2
  0
DICTIONARY
  5
2BB
330
3E
100
AcDbDictionary
280
     1
281
     1
  3
ACAD_XREC_ROUNDTRIP
360
2BC
  0
DICTIONARY
  5
2BD
330
3F
100
AcDbDictionary
280
     1
281
     1
  3
ACAD_XREC_ROUNDTRIP
360
2BE
  0
DICTIONARY
  5
2AD
330
37
100
AcDbDictionary
280
     1
281
     1
  3
ACAD_XREC_ROUNDTRIP
360
2AE
  0
DICTIONARY
  5
29F
330
30
100
AcDbDictionary
280
     1
281
     1
  3
ACAD_XREC_ROUNDTRIP
360
2A0
  0
DICTIONARY
  5
2BF
330
40
100
AcDbDictionary
280
     1
281
     1
  3
ACAD_XREC_ROUNDTRIP
360
2C0
  0
XRECORD
  5
2C8
102
{ACAD_REACTORS
330
2C7
102
}
330
2C7
100
AcDbXrecord
280
     1
102
MATERIAL
148
0.0
149
0.0
149
0.0
 93
        0
 94
      127
282
     0
 72
     1
 77
     1
171
     1
175
     1
179
     1
273
     0
  0
XRECORD
  5
2C6
102
{ACAD_REACTORS
330
2C5
102
}
330
2C5
100
AcDbXrecord
280
     1
102
MATERIAL
148
0.0
149
0.0
149
0.0
 93
        0
 94
      127
282
     0
 72
     1
 77
     1
171
     1
175
     1
179
     1
273
     0
  0
XRECORD
  5
2CA
102
{ACAD_REACTORS
330
2C9
102
}
330
2C9
100
AcDbXrecord
280
     1
102
MATERIAL
148
0.0
149
0.0
149
0.0
 93
        0
 94
      127
282
     0
 72
     1
 77
     1
171
     1
175
     1
179
     1
273
     0
  0
XRECORD
  5
2CD
102
{ACAD_REACTORS
330
2CC
102
}
330
2CC
100
AcDbXrecord
280
     1
102
ACAD_ROUNDTRIP_2010_MLEADER_STYLE
  0
XRECORD
  5
29E
102
{ACAD_REACTORS
330
29D
102
}
330
29D
100
AcDbXrecord
280
     1
102
RTVSPropertyOp0
 70
     1
102
RTVSPropertyOp1
 70
     1
102
RTVSPropertyOp2
 70
     1
102
RTVSPropertyOp3
 70
     1
102
RTVSPropertyOp4
 70
     1
102
RTVSPropertyOp5
 70
     1
102
RTVSPropertyOp6
 70
     1
102
RTVSPropertyOp7
 70
     1
102
RTVSPropertyOp8
 70
     1
102
RTVSPropertyOp9
 70
     1
102
RTVSPropertyOp10
 70
     1
102
RTVSPropertyOp11
 70
     1
102
RTVSPropertyOp12
 70
     1
102
RTVSPropertyOp13
 70
     1
102
RTVSPropertyOp14
 70
     1
102
RTVSPropertyOp15
 70
     1
102
RTVSPropertyOp16
 70
     1
102
RTVSPropertyOp17
 70
     1
102
RTVSPropertyOp18
 70
     1
102
RTVSPropertyOp19
 70
     1
102
RTVSPropertyOp20
 70
     1
102
RTVSPropertyOp21
 70
     1
102
RTVSPropertyOp22
 70
     1
102
RTVSPropertyOp23
 70
     1
102
RTVSPropertyOp24
 70
     1
102
RTVSPropertyOp25
 70
     1
102
RTVSPropertyOp26
 70
     1
102
RTVSPropertyOp27
 70
     1
102
RTVSPropertyOp28
 70
     1
102
RTVSPropertyOp29
 70
     1
102
RTVSPropertyOp30
 70
     1
102
RTVSPropertyOp31
 70
     1
102
RTVSPropertyOp32
 70
     1
102
RTVSPropertyOp33
 70
     1
102
RTVSPropertyOp34
 70
     1
102
RTVSPropertyOp35
 70
     1
102
RTVSPropertyOp36
 70
     1
102
RTVSPropertyOp37
 70
     1
102
RTVSPropertyOp38
 70
     1
102
RTVSPropertyOp39
 70
     1
102
RTVSPropertyOp40
 70
     1
102
RTVSPropertyOp41
 70
     1
102
RTVSPropertyOp42
 70
     1
102
RTVSPropertyOp43
 70
     1
102
RTVSPropertyOp44
 70
     1
102
RTVSPropertyOp45
 70
     1
102
RTVSPropertyOp46
 70
     1
102
RTVSPropertyOp47
 70
     1
102
RTVSPropertyOp48
 70
     1
102
RTVSPropertyOp49
 70
     1
102
RTVSPropertyOp50
 70
     1
102
RTVSPropertyOp51
 70
     0
102
RTVSPropertyOp52
 70
     0
102
RTVSPropertyOp53
 70
     1
102
RTVSPropertyOp54
 70
     1
102
RTVSPropertyOp55
 70
     1
102
RTVSPropertyOp56
 70
     1
102
RTVSPropertyOp57
 70
     1
102
RTVSPost2010Prop28
280
     1
102
RTVSPost2010PropOp28
 70
     1
102
RTVSPost2010Prop29
280
     1
102
RTVSPost2010PropOp29
 70
     1
102
RTVSPost2010Prop30
280
     0
102
RTVSPost2010PropOp30
 70
     1
102
RTVSPost2010Prop31
280
     0
102
RTVSPost2010PropOp31
 70
     1
102
RTVSPost2010Prop32
280
     0
102
RTVSPost2010PropOp32
 70
     1
102
RTVSPost2010Prop33
280
     0
102
RTVSPost2010PropOp33
 70
     1
102
RTVSPost2010Prop34
280
     0
102
RTVSPost2010PropOp34
 70
     1
102
RTVSPost2010Prop35
280
     0
102
RTVSPost2010PropOp35
 70
     1
102
RTVSPost2010Prop36
280
     0
102
RTVSPost2010PropOp36
 70
     1
102
RTVSPost2010Prop37
 90
       50
102
RTVSPost2010PropOp37
 70
     1
102
RTVSPost2010Prop38
140
0.0
102
RTVSPost2010PropOp38
 70
     1
102
RTVSPost2010Prop39
140
1.0
102
RTVSPost2010PropOp39
 70
     1
102
RTVSPost2010Prop40
 90
        0
102
RTVSPost2010PropOp40
 70
     1
102
RTVSPost2010Prop41ColorIndex
 90
       18
102
RTVSPost2010Prop41ColorRGB
 90
        0
102
RTVSPost2010PropOp41
 70
     1
102
RTVSPost2010Prop42
 90
       50
102
RTVSPost2010PropOp42
 70
     1
102
RTVSPost2010Prop43
 90
        3
102
RTVSPost2010PropOp43
 70
     1
102
RTVSPost2010Prop44ColorIndex
 90
        5
102
RTVSPost2010Prop44ColorRGB
 90
      255
102
RTVSPost2010PropOp44
 70
     1
102
RTVSPost2010Prop45
280
     0
102
RTVSPost2010PropOp45
 70
     1
102
RTVSPost2010Prop46
 90
       50
102
RTVSPost2010PropOp46
 70
     1
102
RTVSPost2010Prop47
 90
       50
102
RTVSPost2010PropOp47
 70
     1
102
RTVSPost2010Prop48
 90
       50
102
RTVSPost2010PropOp48
 70
     1
102
RTVSPost2010Prop49
280
     0
102
RTVSPost2010PropOp49
 70
     1
102
RTVSPost2010Prop50
 90
       50
102
RTVSPost2010PropOp50
 70
     1
102
RTVSPost2010Prop51ColorIndex
 90
      256
102
RTVSPost2010Prop51ColorRGB
 90
-16777216
102
RTVSPost2010PropOp51
 70
     0
102
RTVSPost2010Prop52
140
1.0
102
RTVSPost2010PropOp52
 70
     0
102
RTVSPost2010Prop53
 90
        2
102
RTVSPost2010PropOp53
 70
     1
102
RTVSPost2010Prop54
  1
strokes_ogs.tif
102
RTVSPost2010PropOp54
 70
     1
102
RTVSPost2010Prop55
280
     0
102
RTVSPost2010PropOp55
 70
     1
102
RTVSPost2010Prop56
140
1.0
102
RTVSPost2010PropOp56
 70
     1
102
RTVSPost2010Prop57
140
1.0
102
RTVSPost2010PropOp57
 70
     1
  0
XRECORD
  5
2A4
102
{ACAD_REACTORS
330
2A3
102
}
330
2A3
100
AcDbXrecord
280
     1
102
RTVSPropertyOp0
 70
     1
102
RTVSPropertyOp1
 70
     1
102
RTVSPropertyOp2
 70
     1
102
RTVSPropertyOp3
 70
     1
102
RTVSPropertyOp4
 70
     1
102
RTVSPropertyOp5
 70
     1
102
RTVSPropertyOp6
 70
     1
102
RTVSPropertyOp7
 70
     1
102
RTVSPropertyOp8
 70
     1
102
RTVSPropertyOp9
 70
     1
102
RTVSPropertyOp10
 70
     1
102
RTVSPropertyOp11
 70
     1
102
RTVSPropertyOp12
 70
     1
102
RTVSPropertyOp13
 70
     1
102
RTVSPropertyOp14
 70
     1
102
RTVSPropertyOp15
 70
     1
102
RTVSPropertyOp16
 70
     1
102
RTVSPropertyOp17
 70
     1
102
RTVSPropertyOp18
 70
     1
102
RTVSPropertyOp19
 70
     1
102
RTVSPropertyOp20
 70
     1
102
RTVSPropertyOp21
 70
     1
102
RTVSPropertyOp22
 70
     1
102
RTVSPropertyOp23
 70
     1
102
RTVSPropertyOp24
 70
     1
102
RTVSPropertyOp25
 70
     1
102
RTVSPropertyOp26
 70
     1
102
RTVSPropertyOp27
 70
     1
102
RTVSPropertyOp28
 70
     1
102
RTVSPropertyOp29
 70
     1
102
RTVSPropertyOp30
 70
     1
102
RTVSPropertyOp31
 70
     1
102
RTVSPropertyOp32
 70
     1
102
RTVSPropertyOp33
 70
     1
102
RTVSPropertyOp34
 70
     1
102
RTVSPropertyOp35
 70
     1
102
RTVSPropertyOp36
 70
     1
102
RTVSPropertyOp37
 70
     1
102
RTVSPropertyOp38
 70
     1
102
RTVSPropertyOp39
 70
     1
102
RTVSPropertyOp40
 70
     1
102
RTVSPropertyOp41
 70
     1
102
RTVSPropertyOp42
 70
     1
102
RTVSPropertyOp43
 70
     1
102
RTVSPropertyOp44
 70
     1
102
RTVSPropertyOp45
 70
     1
102
RTVSPropertyOp46
 70
     1
102
RTVSPropertyOp47
 70
     1
102
RTVSPropertyOp48
 70
     1
102
RTVSPropertyOp49
 70
     1
102
RTVSPropertyOp50
 70
     1
102
RTVSPropertyOp51
 70
     0
102
RTVSPropertyOp52
 70
     0
102
RTVSPropertyOp53
 70
     1
102
RTVSPropertyOp54
 70
     1
102
RTVSPropertyOp55
 70
     1
102
RTVSPropertyOp56
 70
     1
102
RTVSPropertyOp57
 70
     1
102
RTVSPost2010Prop28
280
     0
102
RTVSPost2010PropOp28
 70
     1
102
RTVSPost2010Prop29
280
     1
102
RTVSPost2010PropOp29
 70
     1
102
RTVSPost2010Prop30
280
     1
102
RTVSPost2010PropOp30
 70
     1
102
RTVSPost2010Prop31
280
     0
102
RTVSPost2010PropOp31
 70
     1
102
RTVSPost2010Prop32
280
     0
102
RTVSPost2010PropOp32
 70
     1
102
RTVSPost2010Prop33
280
     0
102
RTVSPost2010PropOp33
 70
     1
102
RTVSPost2010Prop34
280
     0
102
RTVSPost2010PropOp34
 70
     1
102
RTVSPost2010Prop35
280
     0
102
RTVSPost2010PropOp35
 70
     1
102
RTVSPost2010Prop36
280
     0
102
RTVSPost2010PropOp36
 70
     1
102
RTVSPost2010Prop37
 90
       50
102
RTVSPost2010PropOp37
 70
     1
102
RTVSPost2010Prop38
140
0.0
102
RTVSPost2010PropOp38
 70
     1
102
RTVSPost2010Prop39
140
1.0
102
RTVSPost2010PropOp39
 70
     1
102
RTVSPost2010Prop40
 90
        0
102
RTVSPost2010PropOp40
 70
     1
102
RTVSPost2010Prop41ColorIndex
 90
       18
102
RTVSPost2010Prop41ColorRGB
 90
        0
102
RTVSPost2010PropOp41
 70
     1
102
RTVSPost2010Prop42
 90
       50
102
RTVSPost2010PropOp42
 70
     1
102
RTVSPost2010Prop43
 90
        3
102
RTVSPost2010PropOp43
 70
     1
102
RTVSPost2010Prop44ColorIndex
 90
        5
102
RTVSPost2010Prop44ColorRGB
 90
      255
102
RTVSPost2010PropOp44
 70
     1
102
RTVSPost2010Prop45
280
     0
102
RTVSPost2010PropOp45
 70
     1
102
RTVSPost2010Prop46
 90
       50
102
RTVSPost2010PropOp46
 70
     1
102
RTVSPost2010Prop47
 90
       50
102
RTVSPost2010PropOp47
 70
     1
102
RTVSPost2010Prop48
 90
       50
102
RTVSPost2010PropOp48
 70
     1
102
RTVSPost2010Prop49
280
     0
102
RTVSPost2010PropOp49
 70
     1
102
RTVSPost2010Prop50
 90
       50
102
RTVSPost2010PropOp50
 70
     1
102
RTVSPost2010Prop51ColorIndex
 90
      256
102
RTVSPost2010Prop51ColorRGB
 90
-16777216
102
RTVSPost2010PropOp51
 70
     0
102
RTVSPost2010Prop52
140
1.0
102
RTVSPost2010PropOp52
 70
     0
102
RTVSPost2010Prop53
 90
        2
102
RTVSPost2010PropOp53
 70
     1
102
RTVSPost2010Prop54
  1
strokes_ogs.tif
102
RTVSPost2010PropOp54
 70
     1
102
RTVSPost2010Prop55
280
     0
102
RTVSPost2010PropOp55
 70
     1
102
RTVSPost2010Prop56
140
1.0
102
RTVSPost2010PropOp56
 70
     1
102
RTVSPost2010Prop57
140
1.0
102
RTVSPost2010PropOp57
 70
     1
  0
XRECORD
  5
2AC
102
{ACAD_REACTORS
330
2AB
102
}
330
2AB
100
AcDbXrecord
280
     1
102
RTVSPropertyOp0
 70
     1
102
RTVSPropertyOp1
 70
     1
102
RTVSPropertyOp2
 70
     1
102
RTVSPropertyOp3
 70
     1
102
RTVSPropertyOp4
 70
     1
102
RTVSPropertyOp5
 70
     1
102
RTVSPropertyOp6
 70
     1
102
RTVSPropertyOp7
 70
     1
102
RTVSPropertyOp8
 70
     1
102
RTVSPropertyOp9
 70
     1
102
RTVSPropertyOp10
 70
     1
102
RTVSPropertyOp11
 70
     1
102
RTVSPropertyOp12
 70
     1
102
RTVSPropertyOp13
 70
     1
102
RTVSPropertyOp14
 70
     1
102
RTVSPropertyOp15
 70
     1
102
RTVSPropertyOp16
 70
     1
102
RTVSPropertyOp17
 70
     1
102
RTVSPropertyOp18
 70
     1
102
RTVSPropertyOp19
 70
     1
102
RTVSPropertyOp20
 70
     1
102
RTVSPropertyOp21
 70
     1
102
RTVSPropertyOp22
 70
     1
102
RTVSPropertyOp23
 70
     1
102
RTVSPropertyOp24
 70
     1
102
RTVSPropertyOp25
 70
     1
102
RTVSPropertyOp26
 70
     1
102
RTVSPropertyOp27
 70
     1
102
RTVSPropertyOp28
 70
     1
102
RTVSPropertyOp29
 70
     1
102
RTVSPropertyOp30
 70
     1
102
RTVSPropertyOp31
 70
     1
102
RTVSPropertyOp32
 70
     1
102
RTVSPropertyOp33
 70
     1
102
RTVSPropertyOp34
 70
     1
102
RTVSPropertyOp35
 70
     1
102
RTVSPropertyOp36
 70
     1
102
RTVSPropertyOp37
 70
     1
102
RTVSPropertyOp38
 70
     1
102
RTVSPropertyOp39
 70
     1
102
RTVSPropertyOp40
 70
     1
102
RTVSPropertyOp41
 70
     1
102
RTVSPropertyOp42
 70
     1
102
RTVSPropertyOp43
 70
     1
102
RTVSPropertyOp44
 70
     1
102
RTVSPropertyOp45
 70
     1
102
RTVSPropertyOp46
 70
     1
102
RTVSPropertyOp47
 70
     1
102
RTVSPropertyOp48
 70
     1
102
RTVSPropertyOp49
 70
     1
102
RTVSPropertyOp50
 70
     1
102
RTVSPropertyOp51
 70
     0
102
RTVSPropertyOp52
 70
     0
102
RTVSPropertyOp53
 70
     1
102
RTVSPropertyOp54
 70
     1
102
RTVSPropertyOp55
 70
     1
102
RTVSPropertyOp56
 70
     1
102
RTVSPropertyOp57
 70
     1
102
RTVSPost2010Prop28
280
     0
102
RTVSPost2010PropOp28
 70
     1
102
RTVSPost2010Prop29
280
     1
102
RTVSPost2010PropOp29
 70
     1
102
RTVSPost2010Prop30
280
     1
102
RTVSPost2010PropOp30
 70
     1
102
RTVSPost2010Prop31
280
     0
102
RTVSPost2010PropOp31
 70
     1
102
RTVSPost2010Prop32
280
     0
102
RTVSPost2010PropOp32
 70
     1
102
RTVSPost2010Prop33
280
     0
102
RTVSPost2010PropOp33
 70
     1
102
RTVSPost2010Prop34
280
     0
102
RTVSPost2010PropOp34
 70
     1
102
RTVSPost2010Prop35
280
     0
102
RTVSPost2010PropOp35
 70
     1
102
RTVSPost2010Prop36
280
     0
102
RTVSPost2010PropOp36
 70
     1
102
RTVSPost2010Prop37
 90
       50
102
RTVSPost2010PropOp37
 70
     1
102
RTVSPost2010Prop38
140
0.0
102
RTVSPost2010PropOp38
 70
     1
102
RTVSPost2010Prop39
140
1.0
102
RTVSPost2010PropOp39
 70
     1
102
RTVSPost2010Prop40
 90
        0
102
RTVSPost2010PropOp40
 70
     1
102
RTVSPost2010Prop41ColorIndex
 90
       18
102
RTVSPost2010Prop41ColorRGB
 90
        0
102
RTVSPost2010PropOp41
 70
     1
102
RTVSPost2010Prop42
 90
       50
102
RTVSPost2010PropOp42
 70
     1
102
RTVSPost2010Prop43
 90
        3
102
RTVSPost2010PropOp43
 70
     1
102
RTVSPost2010Prop44ColorIndex
 90
        5
102
RTVSPost2010Prop44ColorRGB
 90
      255
102
RTVSPost2010PropOp44
 70
     1
102
RTVSPost2010Prop45
280
     0
102
RTVSPost2010PropOp45
 70
     1
102
RTVSPost2010Prop46
 90
       50
102
RTVSPost2010PropOp46
 70
     1
102
RTVSPost2010Prop47
 90
       50
102
RTVSPost2010PropOp47
 70
     1
102
RTVSPost2010Prop48
 90
       50
102
RTVSPost2010PropOp48
 70
     1
102
RTVSPost2010Prop49
280
     0
102
RTVSPost2010PropOp49
 70
     1
102
RTVSPost2010Prop50
 90
       50
102
RTVSPost2010PropOp50
 70
     1
102
RTVSPost2010Prop51ColorIndex
 90
      256
102
RTVSPost2010Prop51ColorRGB
 90
-16777216
102
RTVSPost2010PropOp51
 70
     0
102
RTVSPost2010Prop52
140
1.0
102
RTVSPost2010PropOp52
 70
     0
102
RTVSPost2010Prop53
 90
        2
102
RTVSPost2010PropOp53
 70
     1
102
RTVSPost2010Prop54
  1
strokes_ogs.tif
102
RTVSPost2010PropOp54
 70
     1
102
RTVSPost2010Prop55
280
     0
102
RTVSPost2010PropOp55
 70
     1
102
RTVSPost2010Prop56
140
1.0
102
RTVSPost2010PropOp56
 70
     1
102
RTVSPost2010Prop57
140
1.0
102
RTVSPost2010PropOp57
 70
     1
  0
XRECORD
  5
2B4
102
{ACAD_REACTORS
330
2B3
102
}
330
2B3
100
AcDbXrecord
280
     1
102
RTVSPropertyOp0
 70
     1
102
RTVSPropertyOp1
 70
     1
102
RTVSPropertyOp2
 70
     1
102
RTVSPropertyOp3
 70
     1
102
RTVSPropertyOp4
 70
     1
102
RTVSPropertyOp5
 70
     1
102
RTVSPropertyOp6
 70
     1
102
RTVSPropertyOp7
 70
     1
102
RTVSPropertyOp8
 70
     1
102
RTVSPropertyOp9
 70
     1
102
RTVSPropertyOp10
 70
     1
102
RTVSPropertyOp11
 70
     1
102
RTVSPropertyOp12
 70
     1
102
RTVSPropertyOp13
 70
     1
102
RTVSPropertyOp14
 70
     1
102
RTVSPropertyOp15
 70
     1
102
RTVSPropertyOp16
 70
     1
102
RTVSPropertyOp17
 70
     1
102
RTVSPropertyOp18
 70
     1
102
RTVSPropertyOp19
 70
     1
102
RTVSPropertyOp20
 70
     1
102
RTVSPropertyOp21
 70
     1
102
RTVSPropertyOp22
 70
     1
102
RTVSPropertyOp23
 70
     1
102
RTVSPropertyOp24
 70
     1
102
RTVSPropertyOp25
 70
     1
102
RTVSPropertyOp26
 70
     1
102
RTVSPropertyOp27
 70
     1
102
RTVSPropertyOp28
 70
     1
102
RTVSPropertyOp29
 70
     1
102
RTVSPropertyOp30
 70
     1
102
RTVSPropertyOp31
 70
     1
102
RTVSPropertyOp32
 70
     1
102
RTVSPropertyOp33
 70
     1
102
RTVSPropertyOp34
 70
     1
102
RTVSPropertyOp35
 70
     1
102
RTVSPropertyOp36
 70
     1
102
RTVSPropertyOp37
 70
     1
102
RTVSPropertyOp38
 70
     1
102
RTVSPropertyOp39
 70
     1
102
RTVSPropertyOp40
 70
     1
102
RTVSPropertyOp41
 70
     1
102
RTVSPropertyOp42
 70
     1
102
RTVSPropertyOp43
 70
     1
102
RTVSPropertyOp44
 70
     1
102
RTVSPropertyOp45
 70
     1
102
RTVSPropertyOp46
 70
     1
102
RTVSPropertyOp47
 70
     1
102
RTVSPropertyOp48
 70
     1
102
RTVSPropertyOp49
 70
     1
102
RTVSPropertyOp50
 70
     1
102
RTVSPropertyOp51
 70
     0
102
RTVSPropertyOp52
 70
     0
102
RTVSPropertyOp53
 70
     1
102
RTVSPropertyOp54
 70
     1
102
RTVSPropertyOp55
 70
     1
102
RTVSPropertyOp56
 70
     1
102
RTVSPropertyOp57
 70
     1
102
RTVSPost2010Prop28
280
     0
102
RTVSPost2010PropOp28
 70
     1
102
RTVSPost2010Prop29
280
     1
102
RTVSPost2010PropOp29
 70
     1
102
RTVSPost2010Prop30
280
     1
102
RTVSPost2010PropOp30
 70
     1
102
RTVSPost2010Prop31
280
     0
102
RTVSPost2010PropOp31
 70
     1
102
RTVSPost2010Prop32
280
     0
102
RTVSPost2010PropOp32
 70
     1
102
RTVSPost2010Prop33
280
     0
102
RTVSPost2010PropOp33
 70
     1
102
RTVSPost2010Prop34
280
     0
102
RTVSPost2010PropOp34
 70
     1
102
RTVSPost2010Prop35
280
     0
102
RTVSPost2010PropOp35
 70
     1
102
RTVSPost2010Prop36
280
     0
102
RTVSPost2010PropOp36
 70
     1
102
RTVSPost2010Prop37
 90
       50
102
RTVSPost2010PropOp37
 70
     1
102
RTVSPost2010Prop38
140
0.0
102
RTVSPost2010PropOp38
 70
     1
102
RTVSPost2010Prop39
140
1.0
102
RTVSPost2010PropOp39
 70
     1
102
RTVSPost2010Prop40
 90
        0
102
RTVSPost2010PropOp40
 70
     1
102
RTVSPost2010Prop41ColorIndex
 90
       18
102
RTVSPost2010Prop41ColorRGB
 90
        0
102
RTVSPost2010PropOp41
 70
     1
102
RTVSPost2010Prop42
 90
       50
102
RTVSPost2010PropOp42
 70
     1
102
RTVSPost2010Prop43
 90
        3
102
RTVSPost2010PropOp43
 70
     1
102
RTVSPost2010Prop44ColorIndex
 90
        5
102
RTVSPost2010Prop44ColorRGB
 90
      255
102
RTVSPost2010PropOp44
 70
     1
102
RTVSPost2010Prop45
280
     0
102
RTVSPost2010PropOp45
 70
     1
102
RTVSPost2010Prop46
 90
       50
102
RTVSPost2010PropOp46
 70
     1
102
RTVSPost2010Prop47
 90
       50
102
RTVSPost2010PropOp47
 70
     1
102
RTVSPost2010Prop48
 90
       50
102
RTVSPost2010PropOp48
 70
     1
102
RTVSPost2010Prop49
280
     0
102
RTVSPost2010PropOp49
 70
     1
102
RTVSPost2010Prop50
 90
       50
102
RTVSPost2010PropOp50
 70
     1
102
RTVSPost2010Prop51ColorIndex
 90
      256
102
RTVSPost2010Prop51ColorRGB
 90
-16777216
102
RTVSPost2010PropOp51
 70
     0
102
RTVSPost2010Prop52
140
1.0
102
RTVSPost2010PropOp52
 70
     0
102
RTVSPost2010Prop53
 90
        2
102
RTVSPost2010PropOp53
 70
     1
102
RTVSPost2010Prop54
  1
strokes_ogs.tif
102
RTVSPost2010PropOp54
 70
     1
102
RTVSPost2010Prop55
280
     0
102
RTVSPost2010PropOp55
 70
     1
102
RTVSPost2010Prop56
140
1.0
102
RTVSPost2010PropOp56
 70
     1
102
RTVSPost2010Prop57
140
1.0
102
RTVSPost2010PropOp57
 70
     1
  0
XRECORD
  5
2A8
102
{ACAD_REACTORS
330
2A7
102
}
330
2A7
100
AcDbXrecord
280
     1
102
RTVSPropertyOp0
 70
     1
102
RTVSPropertyOp1
 70
     1
102
RTVSPropertyOp2
 70
     1
102
RTVSPropertyOp3
 70
     1
102
RTVSPropertyOp4
 70
     1
102
RTVSPropertyOp5
 70
     1
102
RTVSPropertyOp6
 70
     1
102
RTVSPropertyOp7
 70
     1
102
RTVSPropertyOp8
 70
     1
102
RTVSPropertyOp9
 70
     1
102
RTVSPropertyOp10
 70
     1
102
RTVSPropertyOp11
 70
     1
102
RTVSPropertyOp12
 70
     1
102
RTVSPropertyOp13
 70
     1
102
RTVSPropertyOp14
 70
     1
102
RTVSPropertyOp15
 70
     1
102
RTVSPropertyOp16
 70
     1
102
RTVSPropertyOp17
 70
     1
102
RTVSPropertyOp18
 70
     1
102
RTVSPropertyOp19
 70
     1
102
RTVSPropertyOp20
 70
     1
102
RTVSPropertyOp21
 70
     1
102
RTVSPropertyOp22
 70
     1
102
RTVSPropertyOp23
 70
     1
102
RTVSPropertyOp24
 70
     1
102
RTVSPropertyOp25
 70
     1
102
RTVSPropertyOp26
 70
     1
102
RTVSPropertyOp27
 70
     1
102
RTVSPropertyOp28
 70
     1
102
RTVSPropertyOp29
 70
     1
102
RTVSPropertyOp30
 70
     1
102
RTVSPropertyOp31
 70
     1
102
RTVSPropertyOp32
 70
     1
102
RTVSPropertyOp33
 70
     1
102
RTVSPropertyOp34
 70
     1
102
RTVSPropertyOp35
 70
     1
102
RTVSPropertyOp36
 70
     1
102
RTVSPropertyOp37
 70
     1
102
RTVSPropertyOp38
 70
     1
102
RTVSPropertyOp39
 70
     1
102
RTVSPropertyOp40
 70
     1
102
RTVSPropertyOp41
 70
     1
102
RTVSPropertyOp42
 70
     1
102
RTVSPropertyOp43
 70
     1
102
RTVSPropertyOp44
 70
     1
102
RTVSPropertyOp45
 70
     1
102
RTVSPropertyOp46
 70
     1
102
RTVSPropertyOp47
 70
     1
102
RTVSPropertyOp48
 70
     1
102
RTVSPropertyOp49
 70
     1
102
RTVSPropertyOp50
 70
     1
102
RTVSPropertyOp51
 70
     0
102
RTVSPropertyOp52
 70
     0
102
RTVSPropertyOp53
 70
     1
102
RTVSPropertyOp54
 70
     1
102
RTVSPropertyOp55
 70
     1
102
RTVSPropertyOp56
 70
     1
102
RTVSPropertyOp57
 70
     1
102
RTVSPost2010Prop28
280
     0
102
RTVSPost2010PropOp28
 70
     1
102
RTVSPost2010Prop29
280
     1
102
RTVSPost2010PropOp29
 70
     1
102
RTVSPost2010Prop30
280
     1
102
RTVSPost2010PropOp30
 70
     1
102
RTVSPost2010Prop31
280
     0
102
RTVSPost2010PropOp31
 70
     1
102
RTVSPost2010Prop32
280
     0
102
RTVSPost2010PropOp32
 70
     1
102
RTVSPost2010Prop33
280
     0
102
RTVSPost2010PropOp33
 70
     1
102
RTVSPost2010Prop34
280
     0
102
RTVSPost2010PropOp34
 70
     1
102
RTVSPost2010Prop35
280
     0
102
RTVSPost2010PropOp35
 70
     1
102
RTVSPost2010Prop36
280
     0
102
RTVSPost2010PropOp36
 70
     1
102
RTVSPost2010Prop37
 90
       50
102
RTVSPost2010PropOp37
 70
     1
102
RTVSPost2010Prop38
140
0.0
102
RTVSPost2010PropOp38
 70
     1
102
RTVSPost2010Prop39
140
1.0
102
RTVSPost2010PropOp39
 70
     1
102
RTVSPost2010Prop40
 90
        0
102
RTVSPost2010PropOp40
 70
     1
102
RTVSPost2010Prop41ColorIndex
 90
       18
102
RTVSPost2010Prop41ColorRGB
 90
        0
102
RTVSPost2010PropOp41
 70
     1
102
RTVSPost2010Prop42
 90
       50
102
RTVSPost2010PropOp42
 70
     1
102
RTVSPost2010Prop43
 90
        3
102
RTVSPost2010PropOp43
 70
     1
102
RTVSPost2010Prop44ColorIndex
 90
        5
102
RTVSPost2010Prop44ColorRGB
 90
      255
102
RTVSPost2010PropOp44
 70
     1
102
RTVSPost2010Prop45
280
     0
102
RTVSPost2010PropOp45
 70
     1
102
RTVSPost2010Prop46
 90
       50
102
RTVSPost2010PropOp46
 70
     1
102
RTVSPost2010Prop47
 90
       50
102
RTVSPost2010PropOp47
 70
     1
102
RTVSPost2010Prop48
 90
       50
102
RTVSPost2010PropOp48
 70
     1
102
RTVSPost2010Prop49
280
     0
102
RTVSPost2010PropOp49
 70
     1
102
RTVSPost2010Prop50
 90
       50
102
RTVSPost2010PropOp50
 70
     1
102
RTVSPost2010Prop51ColorIndex
 90
      256
102
RTVSPost2010Prop51ColorRGB
 90
-16777216
102
RTVSPost2010PropOp51
 70
     0
102
RTVSPost2010Prop52
140
1.0
102
RTVSPost2010PropOp52
 70
     0
102
RTVSPost2010Prop53
 90
        2
102
RTVSPost2010PropOp53
 70
     1
102
RTVSPost2010Prop54
  1
strokes_ogs.tif
102
RTVSPost2010PropOp54
 70
     1
102
RTVSPost2010Prop55
280
     0
102
RTVSPost2010PropOp55
 70
     1
102
RTVSPost2010Prop56
140
1.0
102
RTVSPost2010PropOp56
 70
     1
102
RTVSPost2010Prop57
140
1.0
102
RTVSPost2010PropOp57
 70
     1
  0
XRECORD
  5
2AA
102
{ACAD_REACTORS
330
2A9
102
}
330
2A9
100
AcDbXrecord
280
     1
102
RTVSPropertyOp0
 70
     1
102
RTVSPropertyOp1
 70
     1
102
RTVSPropertyOp2
 70
     1
102
RTVSPropertyOp3
 70
     1
102
RTVSPropertyOp4
 70
     1
102
RTVSPropertyOp5
 70
     1
102
RTVSPropertyOp6
 70
     1
102
RTVSPropertyOp7
 70
     1
102
RTVSPropertyOp8
 70
     1
102
RTVSPropertyOp9
 70
     1
102
RTVSPropertyOp10
 70
     1
102
RTVSPropertyOp11
 70
     1
102
RTVSPropertyOp12
 70
     1
102
RTVSPropertyOp13
 70
     1
102
RTVSPropertyOp14
 70
     1
102
RTVSPropertyOp15
 70
     1
102
RTVSPropertyOp16
 70
     1
102
RTVSPropertyOp17
 70
     1
102
RTVSPropertyOp18
 70
     1
102
RTVSPropertyOp19
 70
     1
102
RTVSPropertyOp20
 70
     1
102
RTVSPropertyOp21
 70
     1
102
RTVSPropertyOp22
 70
     1
102
RTVSPropertyOp23
 70
     1
102
RTVSPropertyOp24
 70
     1
102
RTVSPropertyOp25
 70
     1
102
RTVSPropertyOp26
 70
     1
102
RTVSPropertyOp27
 70
     1
102
RTVSPropertyOp28
 70
     1
102
RTVSPropertyOp29
 70
     1
102
RTVSPropertyOp30
 70
     1
102
RTVSPropertyOp31
 70
     1
102
RTVSPropertyOp32
 70
     1
102
RTVSPropertyOp33
 70
     1
102
RTVSPropertyOp34
 70
     1
102
RTVSPropertyOp35
 70
     1
102
RTVSPropertyOp36
 70
     1
102
RTVSPropertyOp37
 70
     1
102
RTVSPropertyOp38
 70
     1
102
RTVSPropertyOp39
 70
     1
102
RTVSPropertyOp40
 70
     1
102
RTVSPropertyOp41
 70
     1
102
RTVSPropertyOp42
 70
     1
102
RTVSPropertyOp43
 70
     1
102
RTVSPropertyOp44
 70
     1
102
RTVSPropertyOp45
 70
     1
102
RTVSPropertyOp46
 70
     1
102
RTVSPropertyOp47
 70
     1
102
RTVSPropertyOp48
 70
     1
102
RTVSPropertyOp49
 70
     1
102
RTVSPropertyOp50
 70
     1
102
RTVSPropertyOp51
 70
     0
102
RTVSPropertyOp52
 70
     0
102
RTVSPropertyOp53
 70
     1
102
RTVSPropertyOp54
 70
     1
102
RTVSPropertyOp55
 70
     1
102
RTVSPropertyOp56
 70
     1
102
RTVSPropertyOp57
 70
     1
102
RTVSPost2010Prop28
280
     0
102
RTVSPost2010PropOp28
 70
     1
102
RTVSPost2010Prop29
280
     1
102
RTVSPost2010PropOp29
 70
     1
102
RTVSPost2010Prop30
280
     1
102
RTVSPost2010PropOp30
 70
     1
102
RTVSPost2010Prop31
280
     0
102
RTVSPost2010PropOp31
 70
     1
102
RTVSPost2010Prop32
280
     0
102
RTVSPost2010PropOp32
 70
     1
102
RTVSPost2010Prop33
280
     0
102
RTVSPost2010PropOp33
 70
     1
102
RTVSPost2010Prop34
280
     0
102
RTVSPost2010PropOp34
 70
     1
102
RTVSPost2010Prop35
280
     0
102
RTVSPost2010PropOp35
 70
     1
102
RTVSPost2010Prop36
280
     0
102
RTVSPost2010PropOp36
 70
     1
102
RTVSPost2010Prop37
 90
       50
102
RTVSPost2010PropOp37
 70
     1
102
RTVSPost2010Prop38
140
0.0
102
RTVSPost2010PropOp38
 70
     1
102
RTVSPost2010Prop39
140
1.0
102
RTVSPost2010PropOp39
 70
     1
102
RTVSPost2010Prop40
 90
        0
102
RTVSPost2010PropOp40
 70
     1
102
RTVSPost2010Prop41ColorIndex
 90
       18
102
RTVSPost2010Prop41ColorRGB
 90
        0
102
RTVSPost2010PropOp41
 70
     1
102
RTVSPost2010Prop42
 90
       50
102
RTVSPost2010PropOp42
 70
     1
102
RTVSPost2010Prop43
 90
        3
102
RTVSPost2010PropOp43
 70
     1
102
RTVSPost2010Prop44ColorIndex
 90
        5
102
RTVSPost2010Prop44ColorRGB
 90
      255
102
RTVSPost2010PropOp44
 70
     1
102
RTVSPost2010Prop45
280
     0
102
RTVSPost2010PropOp45
 70
     1
102
RTVSPost2010Prop46
 90
       50
102
RTVSPost2010PropOp46
 70
     1
102
RTVSPost2010Prop47
 90
       50
102
RTVSPost2010PropOp47
 70
     1
102
RTVSPost2010Prop48
 90
       50
102
RTVSPost2010PropOp48
 70
     1
102
RTVSPost2010Prop49
280
     0
102
RTVSPost2010PropOp49
 70
     1
102
RTVSPost2010Prop50
 90
       50
102
RTVSPost2010PropOp50
 70
     1
102
RTVSPost2010Prop51ColorIndex
 90
      256
102
RTVSPost2010Prop51ColorRGB
 90
-16777216
102
RTVSPost2010PropOp51
 70
     0
102
RTVSPost2010Prop52
140
1.0
102
RTVSPost2010PropOp52
 70
     0
102
RTVSPost2010Prop53
 90
        2
102
RTVSPost2010PropOp53
 70
     1
102
RTVSPost2010Prop54
  1
strokes_ogs.tif
102
RTVSPost2010PropOp54
 70
     1
102
RTVSPost2010Prop55
280
     0
102
RTVSPost2010PropOp55
 70
     1
102
RTVSPost2010Prop56
140
1.0
102
RTVSPost2010PropOp56
 70
     1
102
RTVSPost2010Prop57
140
1.0
102
RTVSPost2010PropOp57
 70
     1
  0
XRECORD
  5
2BA
102
{ACAD_REACTORS
330
2B9
102
}
330
2B9
100
AcDbXrecord
280
     1
102
RTVSPropertyOp0
 70
     0
102
RTVSPropertyOp1
 70
     0
102
RTVSPropertyOp2
 70
     0
102
RTVSPropertyOp3
 70
     0
102
RTVSPropertyOp4
 70
     0
102
RTVSPropertyOp5
 70
     0
102
RTVSPropertyOp6
 70
     0
102
RTVSPropertyOp7
 70
     0
102
RTVSPropertyOp8
 70
     0
102
RTVSPropertyOp9
 70
     0
102
RTVSPropertyOp10
 70
     0
102
RTVSPropertyOp11
 70
     0
102
RTVSPropertyOp12
 70
     0
102
RTVSPropertyOp13
 70
     0
102
RTVSPropertyOp14
 70
     2
102
RTVSPropertyOp15
 70
     0
102
RTVSPropertyOp16
 70
     0
102
RTVSPropertyOp17
 70
     0
102
RTVSPropertyOp18
 70
     0
102
RTVSPropertyOp19
 70
     0
102
RTVSPropertyOp20
 70
     0
102
RTVSPropertyOp21
 70
     0
102
RTVSPropertyOp22
 70
     0
102
RTVSPropertyOp23
 70
     0
102
RTVSPropertyOp24
 70
     0
102
RTVSPropertyOp25
 70
     0
102
RTVSPropertyOp26
 70
     0
102
RTVSPropertyOp27
 70
     0
102
RTVSPropertyOp28
 70
     0
102
RTVSPropertyOp29
 70
     0
102
RTVSPropertyOp30
 70
     0
102
RTVSPropertyOp31
 70
     0
102
RTVSPropertyOp32
 70
     0
102
RTVSPropertyOp33
 70
     0
102
RTVSPropertyOp34
 70
     0
102
RTVSPropertyOp35
 70
     0
102
RTVSPropertyOp36
 70
     0
102
RTVSPropertyOp37
 70
     0
102
RTVSPropertyOp38
 70
     0
102
RTVSPropertyOp39
 70
     0
102
RTVSPropertyOp40
 70
     0
102
RTVSPropertyOp41
 70
     0
102
RTVSPropertyOp42
 70
     0
102
RTVSPropertyOp43
 70
     0
102
RTVSPropertyOp44
 70
     0
102
RTVSPropertyOp45
 70
     0
102
RTVSPropertyOp46
 70
     0
102
RTVSPropertyOp47
 70
     0
102
RTVSPropertyOp48
 70
     0
102
RTVSPropertyOp49
 70
     0
102
RTVSPropertyOp50
 70
     0
102
RTVSPropertyOp51
 70
     0
102
RTVSPropertyOp52
 70
     0
102
RTVSPropertyOp53
 70
     0
102
RTVSPropertyOp54
 70
     0
102
RTVSPropertyOp55
 70
     0
102
RTVSPropertyOp56
 70
     0
102
RTVSPropertyOp57
 70
     0
102
RTVSPost2010Prop28
280
     0
102
RTVSPost2010PropOp28
 70
     0
102
RTVSPost2010Prop29
280
     1
102
RTVSPost2010PropOp29
 70
     0
102
RTVSPost2010Prop30
280
     1
102
RTVSPost2010PropOp30
 70
     0
102
RTVSPost2010Prop31
280
     0
102
RTVSPost2010PropOp31
 70
     0
102
RTVSPost2010Prop32
280
     0
102
RTVSPost2010PropOp32
 70
     0
102
RTVSPost2010Prop33
280
     0
102
RTVSPost2010PropOp33
 70
     0
102
RTVSPost2010Prop34
280
     0
102
RTVSPost2010PropOp34
 70
     0
102
RTVSPost2010Prop35
280
     0
102
RTVSPost2010PropOp35
 70
     0
102
RTVSPost2010Prop36
280
     0
102
RTVSPost2010PropOp36
 70
     0
102
RTVSPost2010Prop37
 90
       50
102
RTVSPost2010PropOp37
 70
     0
102
RTVSPost2010Prop38
140
0.0
102
RTVSPost2010PropOp38
 70
     0
102
RTVSPost2010Prop39
140
1.0
102
RTVSPost2010PropOp39
 70
     0
102
RTVSPost2010Prop40
 90
        0
102
RTVSPost2010PropOp40
 70
     0
102
RTVSPost2010Prop41ColorIndex
 90
       18
102
RTVSPost2010Prop41ColorRGB
 90
        0
102
RTVSPost2010PropOp41
 70
     0
102
RTVSPost2010Prop42
 90
       50
102
RTVSPost2010PropOp42
 70
     0
102
RTVSPost2010Prop43
 90
        3
102
RTVSPost2010PropOp43
 70
     0
102
RTVSPost2010Prop44ColorIndex
 90
        5
102
RTVSPost2010Prop44ColorRGB
 90
      255
102
RTVSPost2010PropOp44
 70
     0
102
RTVSPost2010Prop45
280
     0
102
RTVSPost2010PropOp45
 70
     0
102
RTVSPost2010Prop46
 90
       50
102
RTVSPost2010PropOp46
 70
     0
102
RTVSPost2010Prop47
 90
       50
102
RTVSPost2010PropOp47
 70
     0
102
RTVSPost2010Prop48
 90
       50
102
RTVSPost2010PropOp48
 70
     0
102
RTVSPost2010Prop49
280
     0
102
RTVSPost2010PropOp49
 70
     0
102
RTVSPost2010Prop50
 90
       50
102
RTVSPost2010PropOp50
 70
     0
102
RTVSPost2010Prop51ColorIndex
 90
      256
102
RTVSPost2010Prop51ColorRGB
 90
-16777216
102
RTVSPost2010PropOp51
 70
     0
102
RTVSPost2010Prop52
140
1.0
102
RTVSPost2010PropOp52
 70
     0
102
RTVSPost2010Prop53
 90
        2
102
RTVSPost2010PropOp53
 70
     0
102
RTVSPost2010Prop54
  1
strokes_ogs.tif
102
RTVSPost2010PropOp54
 70
     0
102
RTVSPost2010Prop55
280
     0
102
RTVSPost2010PropOp55
 70
     0
102
RTVSPost2010Prop56
140
1.0
102
RTVSPost2010PropOp56
 70
     0
102
RTVSPost2010Prop57
140
1.0
102
RTVSPost2010PropOp57
 70
     0
  0
XRECORD
  5
2B2
102
{ACAD_REACTORS
330
2B1
102
}
330
2B1
100
AcDbXrecord
280
     1
102
RTVSPropertyOp0
 70
     1
102
RTVSPropertyOp1
 70
     1
102
RTVSPropertyOp2
 70
     1
102
RTVSPropertyOp3
 70
     1
102
RTVSPropertyOp4
 70
     1
102
RTVSPropertyOp5
 70
     1
102
RTVSPropertyOp6
 70
     1
102
RTVSPropertyOp7
 70
     1
102
RTVSPropertyOp8
 70
     1
102
RTVSPropertyOp9
 70
     1
102
RTVSPropertyOp10
 70
     1
102
RTVSPropertyOp11
 70
     1
102
RTVSPropertyOp12
 70
     1
102
RTVSPropertyOp13
 70
     1
102
RTVSPropertyOp14
 70
     1
102
RTVSPropertyOp15
 70
     1
102
RTVSPropertyOp16
 70
     1
102
RTVSPropertyOp17
 70
     1
102
RTVSPropertyOp18
 70
     1
102
RTVSPropertyOp19
 70
     1
102
RTVSPropertyOp20
 70
     1
102
RTVSPropertyOp21
 70
     1
102
RTVSPropertyOp22
 70
     1
102
RTVSPropertyOp23
 70
     1
102
RTVSPropertyOp24
 70
     1
102
RTVSPropertyOp25
 70
     1
102
RTVSPropertyOp26
 70
     1
102
RTVSPropertyOp27
 70
     1
102
RTVSPropertyOp28
 70
     1
102
RTVSPropertyOp29
 70
     1
102
RTVSPropertyOp30
 70
     1
102
RTVSPropertyOp31
 70
     1
102
RTVSPropertyOp32
 70
     1
102
RTVSPropertyOp33
 70
     1
102
RTVSPropertyOp34
 70
     1
102
RTVSPropertyOp35
 70
     1
102
RTVSPropertyOp36
 70
     1
102
RTVSPropertyOp37
 70
     1
102
RTVSPropertyOp38
 70
     1
102
RTVSPropertyOp39
 70
     1
102
RTVSPropertyOp40
 70
     1
102
RTVSPropertyOp41
 70
     1
102
RTVSPropertyOp42
 70
     1
102
RTVSPropertyOp43
 70
     1
102
RTVSPropertyOp44
 70
     1
102
RTVSPropertyOp45
 70
     1
102
RTVSPropertyOp46
 70
     1
102
RTVSPropertyOp47
 70
     1
102
RTVSPropertyOp48
 70
     1
102
RTVSPropertyOp49
 70
     1
102
RTVSPropertyOp50
 70
     1
102
RTVSPropertyOp51
 70
     0
102
RTVSPropertyOp52
 70
     0
102
RTVSPropertyOp53
 70
     1
102
RTVSPropertyOp54
 70
     1
102
RTVSPropertyOp55
 70
     1
102
RTVSPropertyOp56
 70
     1
102
RTVSPropertyOp57
 70
     1
102
RTVSPost2010Prop28
280
     0
102
RTVSPost2010PropOp28
 70
     1
102
RTVSPost2010Prop29
280
     1
102
RTVSPost2010PropOp29
 70
     1
102
RTVSPost2010Prop30
280
     1
102
RTVSPost2010PropOp30
 70
     1
102
RTVSPost2010Prop31
280
     0
102
RTVSPost2010PropOp31
 70
     1
102
RTVSPost2010Prop32
280
     0
102
RTVSPost2010PropOp32
 70
     1
102
RTVSPost2010Prop33
280
     0
102
RTVSPost2010PropOp33
 70
     1
102
RTVSPost2010Prop34
280
     0
102
RTVSPost2010PropOp34
 70
     1
102
RTVSPost2010Prop35
280
     0
102
RTVSPost2010PropOp35
 70
     1
102
RTVSPost2010Prop36
280
     0
102
RTVSPost2010PropOp36
 70
     1
102
RTVSPost2010Prop37
 90
       50
102
RTVSPost2010PropOp37
 70
     1
102
RTVSPost2010Prop38
140
0.0
102
RTVSPost2010PropOp38
 70
     1
102
RTVSPost2010Prop39
140
1.0
102
RTVSPost2010PropOp39
 70
     1
102
RTVSPost2010Prop40
 90
        0
102
RTVSPost2010PropOp40
 70
     1
102
RTVSPost2010Prop41ColorIndex
 90
       18
102
RTVSPost2010Prop41ColorRGB
 90
        0
102
RTVSPost2010PropOp41
 70
     1
102
RTVSPost2010Prop42
 90
       50
102
RTVSPost2010PropOp42
 70
     1
102
RTVSPost2010Prop43
 90
        3
102
RTVSPost2010PropOp43
 70
     1
102
RTVSPost2010Prop44ColorIndex
 90
        5
102
RTVSPost2010Prop44ColorRGB
 90
      255
102
RTVSPost2010PropOp44
 70
     1
102
RTVSPost2010Prop45
280
     0
102
RTVSPost2010PropOp45
 70
     1
102
RTVSPost2010Prop46
 90
       50
102
RTVSPost2010PropOp46
 70
     1
102
RTVSPost2010Prop47
 90
       50
102
RTVSPost2010PropOp47
 70
     1
102
RTVSPost2010Prop48
 90
       50
102
RTVSPost2010PropOp48
 70
     1
102
RTVSPost2010Prop49
280
     0
102
RTVSPost2010PropOp49
 70
     1
102
RTVSPost2010Prop50
 90
       50
102
RTVSPost2010PropOp50
 70
     1
102
RTVSPost2010Prop51ColorIndex
 90
      256
102
RTVSPost2010Prop51ColorRGB
 90
-16777216
102
RTVSPost2010PropOp51
 70
     0
102
RTVSPost2010Prop52
140
1.0
102
RTVSPost2010PropOp52
 70
     0
102
RTVSPost2010Prop53
 90
        2
102
RTVSPost2010PropOp53
 70
     1
102
RTVSPost2010Prop54
  1
strokes_ogs.tif
102
RTVSPost2010PropOp54
 70
     1
102
RTVSPost2010Prop55
280
     0
102
RTVSPost2010PropOp55
 70
     1
102
RTVSPost2010Prop56
140
1.0
102
RTVSPost2010PropOp56
 70
     1
102
RTVSPost2010Prop57
140
1.0
102
RTVSPost2010PropOp57
 70
     1
  0
XRECORD
  5
296
102
{ACAD_REACTORS
330
295
102
}
330
295
100
AcDbXrecord
280
     1
102
RTVSPropertyOp0
 70
     1
102
RTVSPropertyOp1
 70
     1
102
RTVSPropertyOp2
 70
     1
102
RTVSPropertyOp3
 70
     1
102
RTVSPropertyOp4
 70
     1
102
RTVSPropertyOp5
 70
     1
102
RTVSPropertyOp6
 70
     1
102
RTVSPropertyOp7
 70
     1
102
RTVSPropertyOp8
 70
     1
102
RTVSPropertyOp9
 70
     1
102
RTVSPropertyOp10
 70
     1
102
RTVSPropertyOp11
 70
     1
102
RTVSPropertyOp12
 70
     1
102
RTVSPropertyOp13
 70
     1
102
RTVSPropertyOp14
 70
     1
102
RTVSPropertyOp15
 70
     1
102
RTVSPropertyOp16
 70
     1
102
RTVSPropertyOp17
 70
     1
102
RTVSPropertyOp18
 70
     1
102
RTVSPropertyOp19
 70
     1
102
RTVSPropertyOp20
 70
     1
102
RTVSPropertyOp21
 70
     1
102
RTVSPropertyOp22
 70
     1
102
RTVSPropertyOp23
 70
     1
102
RTVSPropertyOp24
 70
     1
102
RTVSPropertyOp25
 70
     1
102
RTVSPropertyOp26
 70
     1
102
RTVSPropertyOp27
 70
     1
102
RTVSPropertyOp28
 70
     1
102
RTVSPropertyOp29
 70
     1
102
RTVSPropertyOp30
 70
     1
102
RTVSPropertyOp31
 70
     1
102
RTVSPropertyOp32
 70
     1
102
RTVSPropertyOp33
 70
     1
102
RTVSPropertyOp34
 70
     1
102
RTVSPropertyOp35
 70
     1
102
RTVSPropertyOp36
 70
     1
102
RTVSPropertyOp37
 70
     1
102
RTVSPropertyOp38
 70
     1
102
RTVSPropertyOp39
 70
     1
102
RTVSPropertyOp40
 70
     1
102
RTVSPropertyOp41
 70
     1
102
RTVSPropertyOp42
 70
     1
102
RTVSPropertyOp43
 70
     1
102
RTVSPropertyOp44
 70
     1
102
RTVSPropertyOp45
 70
     1
102
RTVSPropertyOp46
 70
     1
102
RTVSPropertyOp47
 70
     1
102
RTVSPropertyOp48
 70
     1
102
RTVSPropertyOp49
 70
     1
102
RTVSPropertyOp50
 70
     1
102
RTVSPropertyOp51
 70
     0
102
RTVSPropertyOp52
 70
     0
102
RTVSPropertyOp53
 70
     1
102
RTVSPropertyOp54
 70
     1
102
RTVSPropertyOp55
 70
     1
102
RTVSPropertyOp56
 70
     1
102
RTVSPropertyOp57
 70
     1
102
RTVSPost2010Prop28
280
     0
102
RTVSPost2010PropOp28
 70
     1
102
RTVSPost2010Prop29
280
     1
102
RTVSPost2010PropOp29
 70
     1
102
RTVSPost2010Prop30
280
     1
102
RTVSPost2010PropOp30
 70
     1
102
RTVSPost2010Prop31
280
     0
102
RTVSPost2010PropOp31
 70
     1
102
RTVSPost2010Prop32
280
     0
102
RTVSPost2010PropOp32
 70
     1
102
RTVSPost2010Prop33
280
     0
102
RTVSPost2010PropOp33
 70
     1
102
RTVSPost2010Prop34
280
     0
102
RTVSPost2010PropOp34
 70
     1
102
RTVSPost2010Prop35
280
     0
102
RTVSPost2010PropOp35
 70
     1
102
RTVSPost2010Prop36
280
     0
102
RTVSPost2010PropOp36
 70
     1
102
RTVSPost2010Prop37
 90
       50
102
RTVSPost2010PropOp37
 70
     1
102
RTVSPost2010Prop38
140
0.0
102
RTVSPost2010PropOp38
 70
     1
102
RTVSPost2010Prop39
140
1.0
102
RTVSPost2010PropOp39
 70
     1
102
RTVSPost2010Prop40
 90
        0
102
RTVSPost2010PropOp40
 70
     1
102
RTVSPost2010Prop41ColorIndex
 90
       18
102
RTVSPost2010Prop41ColorRGB
 90
        0
102
RTVSPost2010PropOp41
 70
     1
102
RTVSPost2010Prop42
 90
       50
102
RTVSPost2010PropOp42
 70
     1
102
RTVSPost2010Prop43
 90
        3
102
RTVSPost2010PropOp43
 70
     1
102
RTVSPost2010Prop44ColorIndex
 90
        5
102
RTVSPost2010Prop44ColorRGB
 90
      255
102
RTVSPost2010PropOp44
 70
     1
102
RTVSPost2010Prop45
280
     0
102
RTVSPost2010PropOp45
 70
     1
102
RTVSPost2010Prop46
 90
       50
102
RTVSPost2010PropOp46
 70
     1
102
RTVSPost2010Prop47
 90
       50
102
RTVSPost2010PropOp47
 70
     1
102
RTVSPost2010Prop48
 90
       50
102
RTVSPost2010PropOp48
 70
     1
102
RTVSPost2010Prop49
280
     0
102
RTVSPost2010PropOp49
 70
     1
102
RTVSPost2010Prop50
 90
       50
102
RTVSPost2010PropOp50
 70
     1
102
RTVSPost2010Prop51ColorIndex
 90
      256
102
RTVSPost2010Prop51ColorRGB
 90
-16777216
102
RTVSPost2010PropOp51
 70
     0
102
RTVSPost2010Prop52
140
1.0
102
RTVSPost2010PropOp52
 70
     0
102
RTVSPost2010Prop53
 90
        2
102
RTVSPost2010PropOp53
 70
     1
102
RTVSPost2010Prop54
  1
strokes_ogs.tif
102
RTVSPost2010PropOp54
 70
     1
102
RTVSPost2010Prop55
280
     0
102
RTVSPost2010PropOp55
 70
     1
102
RTVSPost2010Prop56
140
1.0
102
RTVSPost2010PropOp56
 70
     1
102
RTVSPost2010Prop57
140
1.0
102
RTVSPost2010PropOp57
 70
     1
  0
XRECORD
  5
298
102
{ACAD_REACTORS
330
297
102
}
330
297
100
AcDbXrecord
280
     1
102
RTVSPropertyOp0
 70
     1
102
RTVSPropertyOp1
 70
     1
102
RTVSPropertyOp2
 70
     1
102
RTVSPropertyOp3
 70
     1
102
RTVSPropertyOp4
 70
     1
102
RTVSPropertyOp5
 70
     1
102
RTVSPropertyOp6
 70
     1
102
RTVSPropertyOp7
 70
     1
102
RTVSPropertyOp8
 70
     1
102
RTVSPropertyOp9
 70
     1
102
RTVSPropertyOp10
 70
     1
102
RTVSPropertyOp11
 70
     1
102
RTVSPropertyOp12
 70
     1
102
RTVSPropertyOp13
 70
     1
102
RTVSPropertyOp14
 70
     1
102
RTVSPropertyOp15
 70
     1
102
RTVSPropertyOp16
 70
     1
102
RTVSPropertyOp17
 70
     1
102
RTVSPropertyOp18
 70
     1
102
RTVSPropertyOp19
 70
     1
102
RTVSPropertyOp20
 70
     1
102
RTVSPropertyOp21
 70
     1
102
RTVSPropertyOp22
 70
     1
102
RTVSPropertyOp23
 70
     1
102
RTVSPropertyOp24
 70
     1
102
RTVSPropertyOp25
 70
     1
102
RTVSPropertyOp26
 70
     1
102
RTVSPropertyOp27
 70
     1
102
RTVSPropertyOp28
 70
     1
102
RTVSPropertyOp29
 70
     1
102
RTVSPropertyOp30
 70
     1
102
RTVSPropertyOp31
 70
     1
102
RTVSPropertyOp32
 70
     1
102
RTVSPropertyOp33
 70
     1
102
RTVSPropertyOp34
 70
     1
102
RTVSPropertyOp35
 70
     1
102
RTVSPropertyOp36
 70
     1
102
RTVSPropertyOp37
 70
     1
102
RTVSPropertyOp38
 70
     1
102
RTVSPropertyOp39
 70
     1
102
RTVSPropertyOp40
 70
     1
102
RTVSPropertyOp41
 70
     1
102
RTVSPropertyOp42
 70
     1
102
RTVSPropertyOp43
 70
     1
102
RTVSPropertyOp44
 70
     1
102
RTVSPropertyOp45
 70
     1
102
RTVSPropertyOp46
 70
     1
102
RTVSPropertyOp47
 70
     1
102
RTVSPropertyOp48
 70
     1
102
RTVSPropertyOp49
 70
     1
102
RTVSPropertyOp50
 70
     1
102
RTVSPropertyOp51
 70
     0
102
RTVSPropertyOp52
 70
     0
102
RTVSPropertyOp53
 70
     1
102
RTVSPropertyOp54
 70
     1
102
RTVSPropertyOp55
 70
     1
102
RTVSPropertyOp56
 70
     1
102
RTVSPropertyOp57
 70
     1
102
RTVSPost2010Prop28
280
     0
102
RTVSPost2010PropOp28
 70
     1
102
RTVSPost2010Prop29
280
     1
102
RTVSPost2010PropOp29
 70
     1
102
RTVSPost2010Prop30
280
     1
102
RTVSPost2010PropOp30
 70
     1
102
RTVSPost2010Prop31
280
     0
102
RTVSPost2010PropOp31
 70
     1
102
RTVSPost2010Prop32
280
     0
102
RTVSPost2010PropOp32
 70
     1
102
RTVSPost2010Prop33
280
     0
102
RTVSPost2010PropOp33
 70
     1
102
RTVSPost2010Prop34
280
     0
102
RTVSPost2010PropOp34
 70
     1
102
RTVSPost2010Prop35
280
     0
102
RTVSPost2010PropOp35
 70
     1
102
RTVSPost2010Prop36
280
     0
102
RTVSPost2010PropOp36
 70
     1
102
RTVSPost2010Prop37
 90
       50
102
RTVSPost2010PropOp37
 70
     1
102
RTVSPost2010Prop38
140
0.0
102
RTVSPost2010PropOp38
 70
     1
102
RTVSPost2010Prop39
140
1.0
102
RTVSPost2010PropOp39
 70
     1
102
RTVSPost2010Prop40
 90
        0
102
RTVSPost2010PropOp40
 70
     1
102
RTVSPost2010Prop41ColorIndex
 90
       18
102
RTVSPost2010Prop41ColorRGB
 90
        0
102
RTVSPost2010PropOp41
 70
     1
102
RTVSPost2010Prop42
 90
       50
102
RTVSPost2010PropOp42
 70
     1
102
RTVSPost2010Prop43
 90
        3
102
RTVSPost2010PropOp43
 70
     1
102
RTVSPost2010Prop44ColorIndex
 90
        5
102
RTVSPost2010Prop44ColorRGB
 90
      255
102
RTVSPost2010PropOp44
 70
     1
102
RTVSPost2010Prop45
280
     0
102
RTVSPost2010PropOp45
 70
     1
102
RTVSPost2010Prop46
 90
       50
102
RTVSPost2010PropOp46
 70
     1
102
RTVSPost2010Prop47
 90
       50
102
RTVSPost2010PropOp47
 70
     1
102
RTVSPost2010Prop48
 90
       50
102
RTVSPost2010PropOp48
 70
     1
102
RTVSPost2010Prop49
280
     0
102
RTVSPost2010PropOp49
 70
     1
102
RTVSPost2010Prop50
 90
       50
102
RTVSPost2010PropOp50
 70
     1
102
RTVSPost2010Prop51ColorIndex
 90
      256
102
RTVSPost2010Prop51ColorRGB
 90
-16777216
102
RTVSPost2010PropOp51
 70
     0
102
RTVSPost2010Prop52
140
1.0
102
RTVSPost2010PropOp52
 70
     0
102
RTVSPost2010Prop53
 90
        2
102
RTVSPost2010PropOp53
 70
     1
102
RTVSPost2010Prop54
  1
strokes_ogs.tif
102
RTVSPost2010PropOp54
 70
     1
102
RTVSPost2010Prop55
280
     0
102
RTVSPost2010PropOp55
 70
     1
102
RTVSPost2010Prop56
140
1.0
102
RTVSPost2010PropOp56
 70
     1
102
RTVSPost2010Prop57
140
1.0
102
RTVSPost2010PropOp57
 70
     1
  0
XRECORD
  5
29A
102
{ACAD_REACTORS
330
299
102
}
330
299
100
AcDbXrecord
280
     1
102
RTVSPropertyOp0
 70
     1
102
RTVSPropertyOp1
 70
     1
102
RTVSPropertyOp2
 70
     1
102
RTVSPropertyOp3
 70
     1
102
RTVSPropertyOp4
 70
     1
102
RTVSPropertyOp5
 70
     1
102
RTVSPropertyOp6
 70
     1
102
RTVSPropertyOp7
 70
     1
102
RTVSPropertyOp8
 70
     1
102
RTVSPropertyOp9
 70
     1
102
RTVSPropertyOp10
 70
     1
102
RTVSPropertyOp11
 70
     1
102
RTVSPropertyOp12
 70
     1
102
RTVSPropertyOp13
 70
     1
102
RTVSPropertyOp14
 70
     1
102
RTVSPropertyOp15
 70
     1
102
RTVSPropertyOp16
 70
     1
102
RTVSPropertyOp17
 70
     1
102
RTVSPropertyOp18
 70
     1
102
RTVSPropertyOp19
 70
     1
102
RTVSPropertyOp20
 70
     1
102
RTVSPropertyOp21
 70
     1
102
RTVSPropertyOp22
 70
     1
102
RTVSPropertyOp23
 70
     1
102
RTVSPropertyOp24
 70
     1
102
RTVSPropertyOp25
 70
     1
102
RTVSPropertyOp26
 70
     1
102
RTVSPropertyOp27
 70
     1
102
RTVSPropertyOp28
 70
     1
102
RTVSPropertyOp29
 70
     1
102
RTVSPropertyOp30
 70
     1
102
RTVSPropertyOp31
 70
     1
102
RTVSPropertyOp32
 70
     1
102
RTVSPropertyOp33
 70
     1
102
RTVSPropertyOp34
 70
     1
102
RTVSPropertyOp35
 70
     1
102
RTVSPropertyOp36
 70
     1
102
RTVSPropertyOp37
 70
     1
102
RTVSPropertyOp38
 70
     1
102
RTVSPropertyOp39
 70
     1
102
RTVSPropertyOp40
 70
     1
102
RTVSPropertyOp41
 70
     1
102
RTVSPropertyOp42
 70
     1
102
RTVSPropertyOp43
 70
     1
102
RTVSPropertyOp44
 70
     1
102
RTVSPropertyOp45
 70
     1
102
RTVSPropertyOp46
 70
     1
102
RTVSPropertyOp47
 70
     1
102
RTVSPropertyOp48
 70
     1
102
RTVSPropertyOp49
 70
     1
102
RTVSPropertyOp50
 70
     1
102
RTVSPropertyOp51
 70
     0
102
RTVSPropertyOp52
 70
     0
102
RTVSPropertyOp53
 70
     1
102
RTVSPropertyOp54
 70
     1
102
RTVSPropertyOp55
 70
     1
102
RTVSPropertyOp56
 70
     1
102
RTVSPropertyOp57
 70
     1
102
RTVSPost2010Prop28
280
     0
102
RTVSPost2010PropOp28
 70
     1
102
RTVSPost2010Prop29
280
     1
102
RTVSPost2010PropOp29
 70
     1
102
RTVSPost2010Prop30
280
     1
102
RTVSPost2010PropOp30
 70
     1
102
RTVSPost2010Prop31
280
     0
102
RTVSPost2010PropOp31
 70
     1
102
RTVSPost2010Prop32
280
     0
102
RTVSPost2010PropOp32
 70
     1
102
RTVSPost2010Prop33
280
     0
102
RTVSPost2010PropOp33
 70
     1
102
RTVSPost2010Prop34
280
     0
102
RTVSPost2010PropOp34
 70
     1
102
RTVSPost2010Prop35
280
     0
102
RTVSPost2010PropOp35
 70
     1
102
RTVSPost2010Prop36
280
     0
102
RTVSPost2010PropOp36
 70
     1
102
RTVSPost2010Prop37
 90
       50
102
RTVSPost2010PropOp37
 70
     1
102
RTVSPost2010Prop38
140
0.0
102
RTVSPost2010PropOp38
 70
     1
102
RTVSPost2010Prop39
140
1.0
102
RTVSPost2010PropOp39
 70
     1
102
RTVSPost2010Prop40
 90
        0
102
RTVSPost2010PropOp40
 70
     1
102
RTVSPost2010Prop41ColorIndex
 90
       18
102
RTVSPost2010Prop41ColorRGB
 90
        0
102
RTVSPost2010PropOp41
 70
     1
102
RTVSPost2010Prop42
 90
       50
102
RTVSPost2010PropOp42
 70
     1
102
RTVSPost2010Prop43
 90
        3
102
RTVSPost2010PropOp43
 70
     1
102
RTVSPost2010Prop44ColorIndex
 90
        5
102
RTVSPost2010Prop44ColorRGB
 90
      255
102
RTVSPost2010PropOp44
 70
     1
102
RTVSPost2010Prop45
280
     0
102
RTVSPost2010PropOp45
 70
     1
102
RTVSPost2010Prop46
 90
       50
102
RTVSPost2010PropOp46
 70
     1
102
RTVSPost2010Prop47
 90
       50
102
RTVSPost2010PropOp47
 70
     1
102
RTVSPost2010Prop48
 90
       50
102
RTVSPost2010PropOp48
 70
     1
102
RTVSPost2010Prop49
280
     0
102
RTVSPost2010PropOp49
 70
     1
102
RTVSPost2010Prop50
 90
       50
102
RTVSPost2010PropOp50
 70
     1
102
RTVSPost2010Prop51ColorIndex
 90
      256
102
RTVSPost2010Prop51ColorRGB
 90
-16777216
102
RTVSPost2010PropOp51
 70
     0
102
RTVSPost2010Prop52
140
1.0
102
RTVSPost2010PropOp52
 70
     0
102
RTVSPost2010Prop53
 90
        2
102
RTVSPost2010PropOp53
 70
     1
102
RTVSPost2010Prop54
  1
strokes_ogs.tif
102
RTVSPost2010PropOp54
 70
     1
102
RTVSPost2010Prop55
280
     0
102
RTVSPost2010PropOp55
 70
     1
102
RTVSPost2010Prop56
140
1.0
102
RTVSPost2010PropOp56
 70
     1
102
RTVSPost2010Prop57
140
1.0
102
RTVSPost2010PropOp57
 70
     1
  0
XRECORD
  5
29C
102
{ACAD_REACTORS
330
29B
102
}
330
29B
100
AcDbXrecord
280
     1
102
RTVSPropertyOp0
 70
     1
102
RTVSPropertyOp1
 70
     1
102
RTVSPropertyOp2
 70
     1
102
RTVSPropertyOp3
 70
     1
102
RTVSPropertyOp4
 70
     1
102
RTVSPropertyOp5
 70
     1
102
RTVSPropertyOp6
 70
     1
102
RTVSPropertyOp7
 70
     1
102
RTVSPropertyOp8
 70
     1
102
RTVSPropertyOp9
 70
     1
102
RTVSPropertyOp10
 70
     1
102
RTVSPropertyOp11
 70
     1
102
RTVSPropertyOp12
 70
     1
102
RTVSPropertyOp13
 70
     1
102
RTVSPropertyOp14
 70
     1
102
RTVSPropertyOp15
 70
     1
102
RTVSPropertyOp16
 70
     1
102
RTVSPropertyOp17
 70
     1
102
RTVSPropertyOp18
 70
     1
102
RTVSPropertyOp19
 70
     1
102
RTVSPropertyOp20
 70
     1
102
RTVSPropertyOp21
 70
     1
102
RTVSPropertyOp22
 70
     1
102
RTVSPropertyOp23
 70
     1
102
RTVSPropertyOp24
 70
     1
102
RTVSPropertyOp25
 70
     1
102
RTVSPropertyOp26
 70
     1
102
RTVSPropertyOp27
 70
     1
102
RTVSPropertyOp28
 70
     1
102
RTVSPropertyOp29
 70
     1
102
RTVSPropertyOp30
 70
     1
102
RTVSPropertyOp31
 70
     1
102
RTVSPropertyOp32
 70
     1
102
RTVSPropertyOp33
 70
     1
102
RTVSPropertyOp34
 70
     1
102
RTVSPropertyOp35
 70
     1
102
RTVSPropertyOp36
 70
     1
102
RTVSPropertyOp37
 70
     1
102
RTVSPropertyOp38
 70
     1
102
RTVSPropertyOp39
 70
     1
102
RTVSPropertyOp40
 70
     1
102
RTVSPropertyOp41
 70
     1
102
RTVSPropertyOp42
 70
     1
102
RTVSPropertyOp43
 70
     1
102
RTVSPropertyOp44
 70
     1
102
RTVSPropertyOp45
 70
     1
102
RTVSPropertyOp46
 70
     1
102
RTVSPropertyOp47
 70
     1
102
RTVSPropertyOp48
 70
     1
102
RTVSPropertyOp49
 70
     1
102
RTVSPropertyOp50
 70
     1
102
RTVSPropertyOp51
 70
     0
102
RTVSPropertyOp52
 70
     0
102
RTVSPropertyOp53
 70
     1
102
RTVSPropertyOp54
 70
     1
102
RTVSPropertyOp55
 70
     1
102
RTVSPropertyOp56
 70
     1
102
RTVSPropertyOp57
 70
     1
102
RTVSPost2010Prop28
280
     0
102
RTVSPost2010PropOp28
 70
     1
102
RTVSPost2010Prop29
280
     1
102
RTVSPost2010PropOp29
 70
     1
102
RTVSPost2010Prop30
280
     1
102
RTVSPost2010PropOp30
 70
     1
102
RTVSPost2010Prop31
280
     0
102
RTVSPost2010PropOp31
 70
     1
102
RTVSPost2010Prop32
280
     0
102
RTVSPost2010PropOp32
 70
     1
102
RTVSPost2010Prop33
280
     0
102
RTVSPost2010PropOp33
 70
     1
102
RTVSPost2010Prop34
280
     0
102
RTVSPost2010PropOp34
 70
     1
102
RTVSPost2010Prop35
280
     0
102
RTVSPost2010PropOp35
 70
     1
102
RTVSPost2010Prop36
280
     0
102
RTVSPost2010PropOp36
 70
     1
102
RTVSPost2010Prop37
 90
       50
102
RTVSPost2010PropOp37
 70
     1
102
RTVSPost2010Prop38
140
0.0
102
RTVSPost2010PropOp38
 70
     1
102
RTVSPost2010Prop39
140
1.0
102
RTVSPost2010PropOp39
 70
     1
102
RTVSPost2010Prop40
 90
        0
102
RTVSPost2010PropOp40
 70
     1
102
RTVSPost2010Prop41ColorIndex
 90
       18
102
RTVSPost2010Prop41ColorRGB
 90
        0
102
RTVSPost2010PropOp41
 70
     1
102
RTVSPost2010Prop42
 90
       50
102
RTVSPost2010PropOp42
 70
     1
102
RTVSPost2010Prop43
 90
        3
102
RTVSPost2010PropOp43
 70
     1
102
RTVSPost2010Prop44ColorIndex
 90
        5
102
RTVSPost2010Prop44ColorRGB
 90
      255
102
RTVSPost2010PropOp44
 70
     1
102
RTVSPost2010Prop45
280
     0
102
RTVSPost2010PropOp45
 70
     1
102
RTVSPost2010Prop46
 90
       50
102
RTVSPost2010PropOp46
 70
     1
102
RTVSPost2010Prop47
 90
       50
102
RTVSPost2010PropOp47
 70
     1
102
RTVSPost2010Prop48
 90
       50
102
RTVSPost2010PropOp48
 70
     1
102
RTVSPost2010Prop49
280
     0
102
RTVSPost2010PropOp49
 70
     1
102
RTVSPost2010Prop50
 90
       50
102
RTVSPost2010PropOp50
 70
     1
102
RTVSPost2010Prop51ColorIndex
 90
      256
102
RTVSPost2010Prop51ColorRGB
 90
-16777216
102
RTVSPost2010PropOp51
 70
     0
102
RTVSPost2010Prop52
140
1.0
102
RTVSPost2010PropOp52
 70
     0
102
RTVSPost2010Prop53
 90
        2
102
RTVSPost2010PropOp53
 70
     1
102
RTVSPost2010Prop54
  1
strokes_ogs.tif
102
RTVSPost2010PropOp54
 70
     1
102
RTVSPost2010Prop55
280
     0
102
RTVSPost2010PropOp55
 70
     1
102
RTVSPost2010Prop56
140
1.0
102
RTVSPost2010PropOp56
 70
     1
102
RTVSPost2010Prop57
140
1.0
102
RTVSPost2010PropOp57
 70
     1
  0
XRECORD
  5
2A2
102
{ACAD_REACTORS
330
2A1
102
}
330
2A1
100
AcDbXrecord
280
     1
102
RTVSPropertyOp0
 70
     1
102
RTVSPropertyOp1
 70
     1
102
RTVSPropertyOp2
 70
     1
102
RTVSPropertyOp3
 70
     1
102
RTVSPropertyOp4
 70
     1
102
RTVSPropertyOp5
 70
     1
102
RTVSPropertyOp6
 70
     1
102
RTVSPropertyOp7
 70
     1
102
RTVSPropertyOp8
 70
     1
102
RTVSPropertyOp9
 70
     1
102
RTVSPropertyOp10
 70
     1
102
RTVSPropertyOp11
 70
     1
102
RTVSPropertyOp12
 70
     1
102
RTVSPropertyOp13
 70
     1
102
RTVSPropertyOp14
 70
     1
102
RTVSPropertyOp15
 70
     1
102
RTVSPropertyOp16
 70
     1
102
RTVSPropertyOp17
 70
     1
102
RTVSPropertyOp18
 70
     1
102
RTVSPropertyOp19
 70
     1
102
RTVSPropertyOp20
 70
     1
102
RTVSPropertyOp21
 70
     1
102
RTVSPropertyOp22
 70
     1
102
RTVSPropertyOp23
 70
     1
102
RTVSPropertyOp24
 70
     1
102
RTVSPropertyOp25
 70
     1
102
RTVSPropertyOp26
 70
     1
102
RTVSPropertyOp27
 70
     1
102
RTVSPropertyOp28
 70
     1
102
RTVSPropertyOp29
 70
     1
102
RTVSPropertyOp30
 70
     1
102
RTVSPropertyOp31
 70
     1
102
RTVSPropertyOp32
 70
     1
102
RTVSPropertyOp33
 70
     1
102
RTVSPropertyOp34
 70
     1
102
RTVSPropertyOp35
 70
     1
102
RTVSPropertyOp36
 70
     1
102
RTVSPropertyOp37
 70
     1
102
RTVSPropertyOp38
 70
     1
102
RTVSPropertyOp39
 70
     1
102
RTVSPropertyOp40
 70
     1
102
RTVSPropertyOp41
 70
     1
102
RTVSPropertyOp42
 70
     1
102
RTVSPropertyOp43
 70
     1
102
RTVSPropertyOp44
 70
     1
102
RTVSPropertyOp45
 70
     1
102
RTVSPropertyOp46
 70
     1
102
RTVSPropertyOp47
 70
     1
102
RTVSPropertyOp48
 70
     1
102
RTVSPropertyOp49
 70
     1
102
RTVSPropertyOp50
 70
     1
102
RTVSPropertyOp51
 70
     0
102
RTVSPropertyOp52
 70
     0
102
RTVSPropertyOp53
 70
     1
102
RTVSPropertyOp54
 70
     1
102
RTVSPropertyOp55
 70
     1
102
RTVSPropertyOp56
 70
     1
102
RTVSPropertyOp57
 70
     1
102
RTVSPost2010Prop28
280
     0
102
RTVSPost2010PropOp28
 70
     1
102
RTVSPost2010Prop29
280
     1
102
RTVSPost2010PropOp29
 70
     1
102
RTVSPost2010Prop30
280
     1
102
RTVSPost2010PropOp30
 70
     1
102
RTVSPost2010Prop31
280
     0
102
RTVSPost2010PropOp31
 70
     1
102
RTVSPost2010Prop32
280
     0
102
RTVSPost2010PropOp32
 70
     1
102
RTVSPost2010Prop33
280
     0
102
RTVSPost2010PropOp33
 70
     1
102
RTVSPost2010Prop34
280
     0
102
RTVSPost2010PropOp34
 70
     1
102
RTVSPost2010Prop35
280
     0
102
RTVSPost2010PropOp35
 70
     1
102
RTVSPost2010Prop36
280
     0
102
RTVSPost2010PropOp36
 70
     1
102
RTVSPost2010Prop37
 90
       50
102
RTVSPost2010PropOp37
 70
     1
102
RTVSPost2010Prop38
140
0.0
102
RTVSPost2010PropOp38
 70
     1
102
RTVSPost2010Prop39
140
1.0
102
RTVSPost2010PropOp39
 70
     1
102
RTVSPost2010Prop40
 90
        0
102
RTVSPost2010PropOp40
 70
     1
102
RTVSPost2010Prop41ColorIndex
 90
       18
102
RTVSPost2010Prop41ColorRGB
 90
        0
102
RTVSPost2010PropOp41
 70
     1
102
RTVSPost2010Prop42
 90
       50
102
RTVSPost2010PropOp42
 70
     1
102
RTVSPost2010Prop43
 90
        3
102
RTVSPost2010PropOp43
 70
     1
102
RTVSPost2010Prop44ColorIndex
 90
        5
102
RTVSPost2010Prop44ColorRGB
 90
      255
102
RTVSPost2010PropOp44
 70
     1
102
RTVSPost2010Prop45
280
     0
102
RTVSPost2010PropOp45
 70
     1
102
RTVSPost2010Prop46
 90
       50
102
RTVSPost2010PropOp46
 70
     1
102
RTVSPost2010Prop47
 90
       50
102
RTVSPost2010PropOp47
 70
     1
102
RTVSPost2010Prop48
 90
       50
102
RTVSPost2010PropOp48
 70
     1
102
RTVSPost2010Prop49
280
     0
102
RTVSPost2010PropOp49
 70
     1
102
RTVSPost2010Prop50
 90
       50
102
RTVSPost2010PropOp50
 70
     1
102
RTVSPost2010Prop51ColorIndex
 90
      256
102
RTVSPost2010Prop51ColorRGB
 90
-16777216
102
RTVSPost2010PropOp51
 70
     0
102
RTVSPost2010Prop52
140
1.0
102
RTVSPost2010PropOp52
 70
     0
102
RTVSPost2010Prop53
 90
        2
102
RTVSPost2010PropOp53
 70
     1
102
RTVSPost2010Prop54
  1
strokes_ogs.tif
102
RTVSPost2010PropOp54
 70
     1
102
RTVSPost2010Prop55
280
     0
102
RTVSPost2010PropOp55
 70
     1
102
RTVSPost2010Prop56
140
1.0
102
RTVSPost2010PropOp56
 70
     1
102
RTVSPost2010Prop57
140
1.0
102
RTVSPost2010PropOp57
 70
     1
  0
XRECORD
  5
2B6
102
{ACAD_REACTORS
330
2B5
102
}
330
2B5
100
AcDbXrecord
280
     1
102
RTVSPropertyOp0
 70
     0
102
RTVSPropertyOp1
 70
     0
102
RTVSPropertyOp2
 70
     0
102
RTVSPropertyOp3
 70
     0
102
RTVSPropertyOp4
 70
     0
102
RTVSPropertyOp5
 70
     0
102
RTVSPropertyOp6
 70
     0
102
RTVSPropertyOp7
 70
     0
102
RTVSPropertyOp8
 70
     0
102
RTVSPropertyOp9
 70
     0
102
RTVSPropertyOp10
 70
     0
102
RTVSPropertyOp11
 70
     0
102
RTVSPropertyOp12
 70
     0
102
RTVSPropertyOp13
 70
     0
102
RTVSPropertyOp14
 70
     2
102
RTVSPropertyOp15
 70
     0
102
RTVSPropertyOp16
 70
     0
102
RTVSPropertyOp17
 70
     0
102
RTVSPropertyOp18
 70
     0
102
RTVSPropertyOp19
 70
     0
102
RTVSPropertyOp20
 70
     0
102
RTVSPropertyOp21
 70
     0
102
RTVSPropertyOp22
 70
     0
102
RTVSPropertyOp23
 70
     0
102
RTVSPropertyOp24
 70
     0
102
RTVSPropertyOp25
 70
     0
102
RTVSPropertyOp26
 70
     0
102
RTVSPropertyOp27
 70
     0
102
RTVSPropertyOp28
 70
     0
102
RTVSPropertyOp29
 70
     0
102
RTVSPropertyOp30
 70
     0
102
RTVSPropertyOp31
 70
     0
102
RTVSPropertyOp32
 70
     0
102
RTVSPropertyOp33
 70
     0
102
RTVSPropertyOp34
 70
     0
102
RTVSPropertyOp35
 70
     0
102
RTVSPropertyOp36
 70
     0
102
RTVSPropertyOp37
 70
     0
102
RTVSPropertyOp38
 70
     0
102
RTVSPropertyOp39
 70
     0
102
RTVSPropertyOp40
 70
     0
102
RTVSPropertyOp41
 70
     0
102
RTVSPropertyOp42
 70
     0
102
RTVSPropertyOp43
 70
     0
102
RTVSPropertyOp44
 70
     0
102
RTVSPropertyOp45
 70
     0
102
RTVSPropertyOp46
 70
     0
102
RTVSPropertyOp47
 70
     0
102
RTVSPropertyOp48
 70
     0
102
RTVSPropertyOp49
 70
     0
102
RTVSPropertyOp50
 70
     0
102
RTVSPropertyOp51
 70
     0
102
RTVSPropertyOp52
 70
     0
102
RTVSPropertyOp53
 70
     0
102
RTVSPropertyOp54
 70
     0
102
RTVSPropertyOp55
 70
     0
102
RTVSPropertyOp56
 70
     0
102
RTVSPropertyOp57
 70
     0
102
RTVSPost2010Prop28
280
     0
102
RTVSPost2010PropOp28
 70
     0
102
RTVSPost2010Prop29
280
     1
102
RTVSPost2010PropOp29
 70
     0
102
RTVSPost2010Prop30
280
     1
102
RTVSPost2010PropOp30
 70
     0
102
RTVSPost2010Prop31
280
     0
102
RTVSPost2010PropOp31
 70
     0
102
RTVSPost2010Prop32
280
     0
102
RTVSPost2010PropOp32
 70
     0
102
RTVSPost2010Prop33
280
     0
102
RTVSPost2010PropOp33
 70
     0
102
RTVSPost2010Prop34
280
     0
102
RTVSPost2010PropOp34
 70
     0
102
RTVSPost2010Prop35
280
     0
102
RTVSPost2010PropOp35
 70
     0
102
RTVSPost2010Prop36
280
     0
102
RTVSPost2010PropOp36
 70
     0
102
RTVSPost2010Prop37
 90
       50
102
RTVSPost2010PropOp37
 70
     0
102
RTVSPost2010Prop38
140
0.0
102
RTVSPost2010PropOp38
 70
     0
102
RTVSPost2010Prop39
140
1.0
102
RTVSPost2010PropOp39
 70
     0
102
RTVSPost2010Prop40
 90
        0
102
RTVSPost2010PropOp40
 70
     0
102
RTVSPost2010Prop41ColorIndex
 90
       18
102
RTVSPost2010Prop41ColorRGB
 90
        0
102
RTVSPost2010PropOp41
 70
     0
102
RTVSPost2010Prop42
 90
       50
102
RTVSPost2010PropOp42
 70
     0
102
RTVSPost2010Prop43
 90
        3
102
RTVSPost2010PropOp43
 70
     0
102
RTVSPost2010Prop44ColorIndex
 90
        5
102
RTVSPost2010Prop44ColorRGB
 90
      255
102
RTVSPost2010PropOp44
 70
     0
102
RTVSPost2010Prop45
280
     0
102
RTVSPost2010PropOp45
 70
     0
102
RTVSPost2010Prop46
 90
       50
102
RTVSPost2010PropOp46
 70
     0
102
RTVSPost2010Prop47
 90
       50
102
RTVSPost2010PropOp47
 70
     0
102
RTVSPost2010Prop48
 90
       50
102
RTVSPost2010PropOp48
 70
     0
102
RTVSPost2010Prop49
280
     0
102
RTVSPost2010PropOp49
 70
     0
102
RTVSPost2010Prop50
 90
       50
102
RTVSPost2010PropOp50
 70
     0
102
RTVSPost2010Prop51ColorIndex
 90
      256
102
RTVSPost2010Prop51ColorRGB
 90
-16777216
102
RTVSPost2010PropOp51
 70
     0
102
RTVSPost2010Prop52
140
1.0
102
RTVSPost2010PropOp52
 70
     0
102
RTVSPost2010Prop53
 90
        2
102
RTVSPost2010PropOp53
 70
     0
102
RTVSPost2010Prop54
  1
strokes_ogs.tif
102
RTVSPost2010PropOp54
 70
     0
102
RTVSPost2010Prop55
280
     0
102
RTVSPost2010PropOp55
 70
     0
102
RTVSPost2010Prop56
140
1.0
102
RTVSPost2010PropOp56
 70
     0
102
RTVSPost2010Prop57
140
1.0
102
RTVSPost2010PropOp57
 70
     0
  0
XRECORD
  5
2B0
102
{ACAD_REACTORS
330
2AF
102
}
330
2AF
100
AcDbXrecord
280
     1
102
RTVSPropertyOp0
 70
     1
102
RTVSPropertyOp1
 70
     1
102
RTVSPropertyOp2
 70
     1
102
RTVSPropertyOp3
 70
     1
102
RTVSPropertyOp4
 70
     1
102
RTVSPropertyOp5
 70
     1
102
RTVSPropertyOp6
 70
     1
102
RTVSPropertyOp7
 70
     1
102
RTVSPropertyOp8
 70
     1
102
RTVSPropertyOp9
 70
     1
102
RTVSPropertyOp10
 70
     1
102
RTVSPropertyOp11
 70
     1
102
RTVSPropertyOp12
 70
     1
102
RTVSPropertyOp13
 70
     1
102
RTVSPropertyOp14
 70
     1
102
RTVSPropertyOp15
 70
     1
102
RTVSPropertyOp16
 70
     1
102
RTVSPropertyOp17
 70
     1
102
RTVSPropertyOp18
 70
     1
102
RTVSPropertyOp19
 70
     1
102
RTVSPropertyOp20
 70
     1
102
RTVSPropertyOp21
 70
     1
102
RTVSPropertyOp22
 70
     1
102
RTVSPropertyOp23
 70
     1
102
RTVSPropertyOp24
 70
     1
102
RTVSPropertyOp25
 70
     1
102
RTVSPropertyOp26
 70
     1
102
RTVSPropertyOp27
 70
     1
102
RTVSPropertyOp28
 70
     1
102
RTVSPropertyOp29
 70
     1
102
RTVSPropertyOp30
 70
     1
102
RTVSPropertyOp31
 70
     1
102
RTVSPropertyOp32
 70
     1
102
RTVSPropertyOp33
 70
     1
102
RTVSPropertyOp34
 70
     1
102
RTVSPropertyOp35
 70
     1
102
RTVSPropertyOp36
 70
     1
102
RTVSPropertyOp37
 70
     1
102
RTVSPropertyOp38
 70
     1
102
RTVSPropertyOp39
 70
     1
102
RTVSPropertyOp40
 70
     1
102
RTVSPropertyOp41
 70
     1
102
RTVSPropertyOp42
 70
     1
102
RTVSPropertyOp43
 70
     1
102
RTVSPropertyOp44
 70
     1
102
RTVSPropertyOp45
 70
     1
102
RTVSPropertyOp46
 70
     1
102
RTVSPropertyOp47
 70
     1
102
RTVSPropertyOp48
 70
     1
102
RTVSPropertyOp49
 70
     1
102
RTVSPropertyOp50
 70
     1
102
RTVSPropertyOp51
 70
     0
102
RTVSPropertyOp52
 70
     0
102
RTVSPropertyOp53
 70
     1
102
RTVSPropertyOp54
 70
     1
102
RTVSPropertyOp55
 70
     1
102
RTVSPropertyOp56
 70
     1
102
RTVSPropertyOp57
 70
     1
102
RTVSPost2010Prop28
280
     0
102
RTVSPost2010PropOp28
 70
     1
102
RTVSPost2010Prop29
280
     1
102
RTVSPost2010PropOp29
 70
     1
102
RTVSPost2010Prop30
280
     1
102
RTVSPost2010PropOp30
 70
     1
102
RTVSPost2010Prop31
280
     0
102
RTVSPost2010PropOp31
 70
     1
102
RTVSPost2010Prop32
280
     0
102
RTVSPost2010PropOp32
 70
     1
102
RTVSPost2010Prop33
280
     0
102
RTVSPost2010PropOp33
 70
     1
102
RTVSPost2010Prop34
280
     0
102
RTVSPost2010PropOp34
 70
     1
102
RTVSPost2010Prop35
280
     0
102
RTVSPost2010PropOp35
 70
     1
102
RTVSPost2010Prop36
280
     0
102
RTVSPost2010PropOp36
 70
     1
102
RTVSPost2010Prop37
 90
       50
102
RTVSPost2010PropOp37
 70
     1
102
RTVSPost2010Prop38
140
0.0
102
RTVSPost2010PropOp38
 70
     1
102
RTVSPost2010Prop39
140
1.0
102
RTVSPost2010PropOp39
 70
     1
102
RTVSPost2010Prop40
 90
        0
102
RTVSPost2010PropOp40
 70
     1
102
RTVSPost2010Prop41ColorIndex
 90
       18
102
RTVSPost2010Prop41ColorRGB
 90
        0
102
RTVSPost2010PropOp41
 70
     1
102
RTVSPost2010Prop42
 90
       50
102
RTVSPost2010PropOp42
 70
     1
102
RTVSPost2010Prop43
 90
        3
102
RTVSPost2010PropOp43
 70
     1
102
RTVSPost2010Prop44ColorIndex
 90
        5
102
RTVSPost2010Prop44ColorRGB
 90
      255
102
RTVSPost2010PropOp44
 70
     1
102
RTVSPost2010Prop45
280
     0
102
RTVSPost2010PropOp45
 70
     1
102
RTVSPost2010Prop46
 90
       50
102
RTVSPost2010PropOp46
 70
     1
102
RTVSPost2010Prop47
 90
       50
102
RTVSPost2010PropOp47
 70
     1
102
RTVSPost2010Prop48
 90
       50
102
RTVSPost2010PropOp48
 70
     1
102
RTVSPost2010Prop49
280
     0
102
RTVSPost2010PropOp49
 70
     1
102
RTVSPost2010Prop50
 90
       50
102
RTVSPost2010PropOp50
 70
     1
102
RTVSPost2010Prop51ColorIndex
 90
      256
102
RTVSPost2010Prop51ColorRGB
 90
-16777216
102
RTVSPost2010PropOp51
 70
     0
102
RTVSPost2010Prop52
140
1.0
102
RTVSPost2010PropOp52
 70
     0
102
RTVSPost2010Prop53
 90
        2
102
RTVSPost2010PropOp53
 70
     1
102
RTVSPost2010Prop54
  1
strokes_ogs.tif
102
RTVSPost2010PropOp54
 70
     1
102
RTVSPost2010Prop55
280
     0
102
RTVSPost2010PropOp55
 70
     1
102
RTVSPost2010Prop56
140
1.0
102
RTVSPost2010PropOp56
 70
     1
102
RTVSPost2010Prop57
140
1.0
102
RTVSPost2010PropOp57
 70
     1
  0
XRECORD
  5
2B8
102
{ACAD_REACTORS
330
2B7
102
}
330
2B7
100
AcDbXrecord
280
     1
102
RTVSPropertyOp0
 70
     0
102
RTVSPropertyOp1
 70
     0
102
RTVSPropertyOp2
 70
     0
102
RTVSPropertyOp3
 70
     0
102
RTVSPropertyOp4
 70
     0
102
RTVSPropertyOp5
 70
     0
102
RTVSPropertyOp6
 70
     0
102
RTVSPropertyOp7
 70
     0
102
RTVSPropertyOp8
 70
     0
102
RTVSPropertyOp9
 70
     0
102
RTVSPropertyOp10
 70
     0
102
RTVSPropertyOp11
 70
     0
102
RTVSPropertyOp12
 70
     0
102
RTVSPropertyOp13
 70
     0
102
RTVSPropertyOp14
 70
     2
102
RTVSPropertyOp15
 70
     0
102
RTVSPropertyOp16
 70
     0
102
RTVSPropertyOp17
 70
     0
102
RTVSPropertyOp18
 70
     0
102
RTVSPropertyOp19
 70
     0
102
RTVSPropertyOp20
 70
     0
102
RTVSPropertyOp21
 70
     0
102
RTVSPropertyOp22
 70
     0
102
RTVSPropertyOp23
 70
     0
102
RTVSPropertyOp24
 70
     0
102
RTVSPropertyOp25
 70
     0
102
RTVSPropertyOp26
 70
     0
102
RTVSPropertyOp27
 70
     0
102
RTVSPropertyOp28
 70
     0
102
RTVSPropertyOp29
 70
     0
102
RTVSPropertyOp30
 70
     0
102
RTVSPropertyOp31
 70
     0
102
RTVSPropertyOp32
 70
     0
102
RTVSPropertyOp33
 70
     0
102
RTVSPropertyOp34
 70
     0
102
RTVSPropertyOp35
 70
     0
102
RTVSPropertyOp36
 70
     0
102
RTVSPropertyOp37
 70
     0
102
RTVSPropertyOp38
 70
     0
102
RTVSPropertyOp39
 70
     0
102
RTVSPropertyOp40
 70
     0
102
RTVSPropertyOp41
 70
     0
102
RTVSPropertyOp42
 70
     0
102
RTVSPropertyOp43
 70
     0
102
RTVSPropertyOp44
 70
     0
102
RTVSPropertyOp45
 70
     0
102
RTVSPropertyOp46
 70
     0
102
RTVSPropertyOp47
 70
     0
102
RTVSPropertyOp48
 70
     0
102
RTVSPropertyOp49
 70
     0
102
RTVSPropertyOp50
 70
     0
102
RTVSPropertyOp51
 70
     0
102
RTVSPropertyOp52
 70
     0
102
RTVSPropertyOp53
 70
     0
102
RTVSPropertyOp54
 70
     0
102
RTVSPropertyOp55
 70
     0
102
RTVSPropertyOp56
 70
     0
102
RTVSPropertyOp57
 70
     0
102
RTVSPost2010Prop28
280
     0
102
RTVSPost2010PropOp28
 70
     0
102
RTVSPost2010Prop29
280
     1
102
RTVSPost2010PropOp29
 70
     0
102
RTVSPost2010Prop30
280
     1
102
RTVSPost2010PropOp30
 70
     0
102
RTVSPost2010Prop31
280
     0
102
RTVSPost2010PropOp31
 70
     0
102
RTVSPost2010Prop32
280
     0
102
RTVSPost2010PropOp32
 70
     0
102
RTVSPost2010Prop33
280
     0
102
RTVSPost2010PropOp33
 70
     0
102
RTVSPost2010Prop34
280
     0
102
RTVSPost2010PropOp34
 70
     0
102
RTVSPost2010Prop35
280
     0
102
RTVSPost2010PropOp35
 70
     0
102
RTVSPost2010Prop36
280
     0
102
RTVSPost2010PropOp36
 70
     0
102
RTVSPost2010Prop37
 90
       50
102
RTVSPost2010PropOp37
 70
     0
102
RTVSPost2010Prop38
140
0.0
102
RTVSPost2010PropOp38
 70
     0
102
RTVSPost2010Prop39
140
1.0
102
RTVSPost2010PropOp39
 70
     0
102
RTVSPost2010Prop40
 90
        0
102
RTVSPost2010PropOp40
 70
     0
102
RTVSPost2010Prop41ColorIndex
 90
       18
102
RTVSPost2010Prop41ColorRGB
 90
        0
102
RTVSPost2010PropOp41
 70
     0
102
RTVSPost2010Prop42
 90
       50
102
RTVSPost2010PropOp42
 70
     0
102
RTVSPost2010Prop43
 90
        3
102
RTVSPost2010PropOp43
 70
     0
102
RTVSPost2010Prop44ColorIndex
 90
        5
102
RTVSPost2010Prop44ColorRGB
 90
      255
102
RTVSPost2010PropOp44
 70
     0
102
RTVSPost2010Prop45
280
     0
102
RTVSPost2010PropOp45
 70
     0
102
RTVSPost2010Prop46
 90
       50
102
RTVSPost2010PropOp46
 70
     0
102
RTVSPost2010Prop47
 90
       50
102
RTVSPost2010PropOp47
 70
     0
102
RTVSPost2010Prop48
 90
       50
102
RTVSPost2010PropOp48
 70
     0
102
RTVSPost2010Prop49
280
     0
102
RTVSPost2010PropOp49
 70
     0
102
RTVSPost2010Prop50
 90
       50
102
RTVSPost2010PropOp50
 70
     0
102
RTVSPost2010Prop51ColorIndex
 90
      256
102
RTVSPost2010Prop51ColorRGB
 90
-16777216
102
RTVSPost2010PropOp51
 70
     0
102
RTVSPost2010Prop52
140
1.0
102
RTVSPost2010PropOp52
 70
     0
102
RTVSPost2010Prop53
 90
        2
102
RTVSPost2010PropOp53
 70
     0
102
RTVSPost2010Prop54
  1
strokes_ogs.tif
102
RTVSPost2010PropOp54
 70
     0
102
RTVSPost2010Prop55
280
     0
102
RTVSPost2010PropOp55
 70
     0
102
RTVSPost2010Prop56
140
1.0
102
RTVSPost2010PropOp56
 70
     0
102
RTVSPost2010Prop57
140
1.0
102
RTVSPost2010PropOp57
 70
     0
  0
XRECORD
  5
2A6
102
{ACAD_REACTORS
330
2A5
102
}
330
2A5
100
AcDbXrecord
280
     1
102
RTVSPropertyOp0
 70
     1
102
RTVSPropertyOp1
 70
     1
102
RTVSPropertyOp2
 70
     1
102
RTVSPropertyOp3
 70
     1
102
RTVSPropertyOp4
 70
     1
102
RTVSPropertyOp5
 70
     1
102
RTVSPropertyOp6
 70
     1
102
RTVSPropertyOp7
 70
     1
102
RTVSPropertyOp8
 70
     1
102
RTVSPropertyOp9
 70
     1
102
RTVSPropertyOp10
 70
     1
102
RTVSPropertyOp11
 70
     1
102
RTVSPropertyOp12
 70
     1
102
RTVSPropertyOp13
 70
     1
102
RTVSPropertyOp14
 70
     1
102
RTVSPropertyOp15
 70
     1
102
RTVSPropertyOp16
 70
     1
102
RTVSPropertyOp17
 70
     1
102
RTVSPropertyOp18
 70
     1
102
RTVSPropertyOp19
 70
     1
102
RTVSPropertyOp20
 70
     1
102
RTVSPropertyOp21
 70
     1
102
RTVSPropertyOp22
 70
     1
102
RTVSPropertyOp23
 70
     1
102
RTVSPropertyOp24
 70
     1
102
RTVSPropertyOp25
 70
     1
102
RTVSPropertyOp26
 70
     1
102
RTVSPropertyOp27
 70
     1
102
RTVSPropertyOp28
 70
     1
102
RTVSPropertyOp29
 70
     1
102
RTVSPropertyOp30
 70
     1
102
RTVSPropertyOp31
 70
     1
102
RTVSPropertyOp32
 70
     1
102
RTVSPropertyOp33
 70
     1
102
RTVSPropertyOp34
 70
     1
102
RTVSPropertyOp35
 70
     1
102
RTVSPropertyOp36
 70
     1
102
RTVSPropertyOp37
 70
     1
102
RTVSPropertyOp38
 70
     1
102
RTVSPropertyOp39
 70
     1
102
RTVSPropertyOp40
 70
     1
102
RTVSPropertyOp41
 70
     1
102
RTVSPropertyOp42
 70
     1
102
RTVSPropertyOp43
 70
     1
102
RTVSPropertyOp44
 70
     1
102
RTVSPropertyOp45
 70
     1
102
RTVSPropertyOp46
 70
     1
102
RTVSPropertyOp47
 70
     1
102
RTVSPropertyOp48
 70
     1
102
RTVSPropertyOp49
 70
     1
102
RTVSPropertyOp50
 70
     1
102
RTVSPropertyOp51
 70
     0
102
RTVSPropertyOp52
 70
     0
102
RTVSPropertyOp53
 70
     1
102
RTVSPropertyOp54
 70
     1
102
RTVSPropertyOp55
 70
     1
102
RTVSPropertyOp56
 70
     1
102
RTVSPropertyOp57
 70
     1
102
RTVSPost2010Prop28
280
     0
102
RTVSPost2010PropOp28
 70
     1
102
RTVSPost2010Prop29
280
     1
102
RTVSPost2010PropOp29
 70
     1
102
RTVSPost2010Prop30
280
     1
102
RTVSPost2010PropOp30
 70
     1
102
RTVSPost2010Prop31
280
     0
102
RTVSPost2010PropOp31
 70
     1
102
RTVSPost2010Prop32
280
     0
102
RTVSPost2010PropOp32
 70
     1
102
RTVSPost2010Prop33
280
     0
102
RTVSPost2010PropOp33
 70
     1
102
RTVSPost2010Prop34
280
     0
102
RTVSPost2010PropOp34
 70
     1
102
RTVSPost2010Prop35
280
     0
102
RTVSPost2010PropOp35
 70
     1
102
RTVSPost2010Prop36
280
     0
102
RTVSPost2010PropOp36
 70
     1
102
RTVSPost2010Prop37
 90
       50
102
RTVSPost2010PropOp37
 70
     1
102
RTVSPost2010Prop38
140
0.0
102
RTVSPost2010PropOp38
 70
     1
102
RTVSPost2010Prop39
140
1.0
102
RTVSPost2010PropOp39
 70
     1
102
RTVSPost2010Prop40
 90
        0
102
RTVSPost2010PropOp40
 70
     1
102
RTVSPost2010Prop41ColorIndex
 90
       18
102
RTVSPost2010Prop41ColorRGB
 90
        0
102
RTVSPost2010PropOp41
 70
     1
102
RTVSPost2010Prop42
 90
       50
102
RTVSPost2010PropOp42
 70
     1
102
RTVSPost2010Prop43
 90
        3
102
RTVSPost2010PropOp43
 70
     1
102
RTVSPost2010Prop44ColorIndex
 90
        5
102
RTVSPost2010Prop44ColorRGB
 90
      255
102
RTVSPost2010PropOp44
 70
     1
102
RTVSPost2010Prop45
280
     0
102
RTVSPost2010PropOp45
 70
     1
102
RTVSPost2010Prop46
 90
       50
102
RTVSPost2010PropOp46
 70
     1
102
RTVSPost2010Prop47
 90
       50
102
RTVSPost2010PropOp47
 70
     1
102
RTVSPost2010Prop48
 90
       50
102
RTVSPost2010PropOp48
 70
     1
102
RTVSPost2010Prop49
280
     0
102
RTVSPost2010PropOp49
 70
     1
102
RTVSPost2010Prop50
 90
       50
102
RTVSPost2010PropOp50
 70
     1
102
RTVSPost2010Prop51ColorIndex
 90
      256
102
RTVSPost2010Prop51ColorRGB
 90
-16777216
102
RTVSPost2010PropOp51
 70
     0
102
RTVSPost2010Prop52
140
1.0
102
RTVSPost2010PropOp52
 70
     0
102
RTVSPost2010Prop53
 90
        2
102
RTVSPost2010PropOp53
 70
     1
102
RTVSPost2010Prop54
  1
strokes_ogs.tif
102
RTVSPost2010PropOp54
 70
     1
102
RTVSPost2010Prop55
280
     0
102
RTVSPost2010PropOp55
 70
     1
102
RTVSPost2010Prop56
140
1.0
102
RTVSPost2010PropOp56
 70
     1
102
RTVSPost2010Prop57
140
1.0
102
RTVSPost2010PropOp57
 70
     1
  0
XRECORD
  5
2C4
102
{ACAD_REACTORS
330
2C3
102
}
330
2C3
100
AcDbXrecord
280
     1
102
RTVSPropertyOp0
 70
     1
102
RTVSPropertyOp1
 70
     1
102
RTVSPropertyOp2
 70
     1
102
RTVSPropertyOp3
 70
     1
102
RTVSPropertyOp4
 70
     1
102
RTVSPropertyOp5
 70
     1
102
RTVSPropertyOp6
 70
     1
102
RTVSPropertyOp7
 70
     1
102
RTVSPropertyOp8
 70
     1
102
RTVSPropertyOp9
 70
     1
102
RTVSPropertyOp10
 70
     1
102
RTVSPropertyOp11
 70
     1
102
RTVSPropertyOp12
 70
     1
102
RTVSPropertyOp13
 70
     1
102
RTVSPropertyOp14
 70
     1
102
RTVSPropertyOp15
 70
     1
102
RTVSPropertyOp16
 70
     1
102
RTVSPropertyOp17
 70
     1
102
RTVSPropertyOp18
 70
     1
102
RTVSPropertyOp19
 70
     1
102
RTVSPropertyOp20
 70
     1
102
RTVSPropertyOp21
 70
     1
102
RTVSPropertyOp22
 70
     1
102
RTVSPropertyOp23
 70
     1
102
RTVSPropertyOp24
 70
     1
102
RTVSPropertyOp25
 70
     1
102
RTVSPropertyOp26
 70
     1
102
RTVSPropertyOp27
 70
     1
102
RTVSPropertyOp28
 70
     1
102
RTVSPropertyOp29
 70
     1
102
RTVSPropertyOp30
 70
     1
102
RTVSPropertyOp31
 70
     1
102
RTVSPropertyOp32
 70
     1
102
RTVSPropertyOp33
 70
     1
102
RTVSPropertyOp34
 70
     1
102
RTVSPropertyOp35
 70
     1
102
RTVSPropertyOp36
 70
     1
102
RTVSPropertyOp37
 70
     1
102
RTVSPropertyOp38
 70
     1
102
RTVSPropertyOp39
 70
     1
102
RTVSPropertyOp40
 70
     1
102
RTVSPropertyOp41
 70
     1
102
RTVSPropertyOp42
 70
     1
102
RTVSPropertyOp43
 70
     1
102
RTVSPropertyOp44
 70
     1
102
RTVSPropertyOp45
 70
     1
102
RTVSPropertyOp46
 70
     1
102
RTVSPropertyOp47
 70
     1
102
RTVSPropertyOp48
 70
     1
102
RTVSPropertyOp49
 70
     1
102
RTVSPropertyOp50
 70
     1
102
RTVSPropertyOp51
 70
     0
102
RTVSPropertyOp52
 70
     0
102
RTVSPropertyOp53
 70
     1
102
RTVSPropertyOp54
 70
     1
102
RTVSPropertyOp55
 70
     1
102
RTVSPropertyOp56
 70
     1
102
RTVSPropertyOp57
 70
     1
102
RTVSPost2010Prop28
280
     0
102
RTVSPost2010PropOp28
 70
     1
102
RTVSPost2010Prop29
280
     1
102
RTVSPost2010PropOp29
 70
     1
102
RTVSPost2010Prop30
280
     1
102
RTVSPost2010PropOp30
 70
     1
102
RTVSPost2010Prop31
280
     0
102
RTVSPost2010PropOp31
 70
     1
102
RTVSPost2010Prop32
280
     0
102
RTVSPost2010PropOp32
 70
     1
102
RTVSPost2010Prop33
280
     0
102
RTVSPost2010PropOp33
 70
     1
102
RTVSPost2010Prop34
280
     0
102
RTVSPost2010PropOp34
 70
     1
102
RTVSPost2010Prop35
280
     0
102
RTVSPost2010PropOp35
 70
     1
102
RTVSPost2010Prop36
280
     0
102
RTVSPost2010PropOp36
 70
     1
102
RTVSPost2010Prop37
 90
       50
102
RTVSPost2010PropOp37
 70
     1
102
RTVSPost2010Prop38
140
0.0
102
RTVSPost2010PropOp38
 70
     1
102
RTVSPost2010Prop39
140
1.0
102
RTVSPost2010PropOp39
 70
     1
102
RTVSPost2010Prop40
 90
        0
102
RTVSPost2010PropOp40
 70
     1
102
RTVSPost2010Prop41ColorIndex
 90
       18
102
RTVSPost2010Prop41ColorRGB
 90
        0
102
RTVSPost2010PropOp41
 70
     1
102
RTVSPost2010Prop42
 90
       50
102
RTVSPost2010PropOp42
 70
     1
102
RTVSPost2010Prop43
 90
        3
102
RTVSPost2010PropOp43
 70
     1
102
RTVSPost2010Prop44ColorIndex
 90
        5
102
RTVSPost2010Prop44ColorRGB
 90
      255
102
RTVSPost2010PropOp44
 70
     1
102
RTVSPost2010Prop45
280
     0
102
RTVSPost2010PropOp45
 70
     1
102
RTVSPost2010Prop46
 90
       50
102
RTVSPost2010PropOp46
 70
     1
102
RTVSPost2010Prop47
 90
       50
102
RTVSPost2010PropOp47
 70
     1
102
RTVSPost2010Prop48
 90
       50
102
RTVSPost2010PropOp48
 70
     1
102
RTVSPost2010Prop49
280
     0
102
RTVSPost2010PropOp49
 70
     1
102
RTVSPost2010Prop50
 90
       50
102
RTVSPost2010PropOp50
 70
     1
102
RTVSPost2010Prop51ColorIndex
 90
      256
102
RTVSPost2010Prop51ColorRGB
 90
-16777216
102
RTVSPost2010PropOp51
 70
     0
102
RTVSPost2010Prop52
140
1.0
102
RTVSPost2010PropOp52
 70
     0
102
RTVSPost2010Prop53
 90
        2
102
RTVSPost2010PropOp53
 70
     1
102
RTVSPost2010Prop54
  1
strokes_ogs.tif
102
RTVSPost2010PropOp54
 70
     1
102
RTVSPost2010Prop55
280
     0
102
RTVSPost2010PropOp55
 70
     1
102
RTVSPost2010Prop56
140
1.0
102
RTVSPost2010PropOp56
 70
     1
102
RTVSPost2010Prop57
140
1.0
102
RTVSPost2010PropOp57
 70
     1
  0
XRECORD
  5
2C2
102
{ACAD_REACTORS
330
2C1
102
}
330
2C1
100
AcDbXrecord
280
     1
102
RTVSPropertyOp0
 70
     1
102
RTVSPropertyOp1
 70
     1
102
RTVSPropertyOp2
 70
     1
102
RTVSPropertyOp3
 70
     1
102
RTVSPropertyOp4
 70
     1
102
RTVSPropertyOp5
 70
     1
102
RTVSPropertyOp6
 70
     1
102
RTVSPropertyOp7
 70
     1
102
RTVSPropertyOp8
 70
     1
102
RTVSPropertyOp9
 70
     1
102
RTVSPropertyOp10
 70
     1
102
RTVSPropertyOp11
 70
     1
102
RTVSPropertyOp12
 70
     1
102
RTVSPropertyOp13
 70
     1
102
RTVSPropertyOp14
 70
     1
102
RTVSPropertyOp15
 70
     1
102
RTVSPropertyOp16
 70
     1
102
RTVSPropertyOp17
 70
     1
102
RTVSPropertyOp18
 70
     1
102
RTVSPropertyOp19
 70
     1
102
RTVSPropertyOp20
 70
     1
102
RTVSPropertyOp21
 70
     1
102
RTVSPropertyOp22
 70
     1
102
RTVSPropertyOp23
 70
     1
102
RTVSPropertyOp24
 70
     1
102
RTVSPropertyOp25
 70
     1
102
RTVSPropertyOp26
 70
     1
102
RTVSPropertyOp27
 70
     1
102
RTVSPropertyOp28
 70
     1
102
RTVSPropertyOp29
 70
     1
102
RTVSPropertyOp30
 70
     1
102
RTVSPropertyOp31
 70
     1
102
RTVSPropertyOp32
 70
     1
102
RTVSPropertyOp33
 70
     1
102
RTVSPropertyOp34
 70
     1
102
RTVSPropertyOp35
 70
     1
102
RTVSPropertyOp36
 70
     1
102
RTVSPropertyOp37
 70
     1
102
RTVSPropertyOp38
 70
     1
102
RTVSPropertyOp39
 70
     1
102
RTVSPropertyOp40
 70
     1
102
RTVSPropertyOp41
 70
     1
102
RTVSPropertyOp42
 70
     1
102
RTVSPropertyOp43
 70
     1
102
RTVSPropertyOp44
 70
     1
102
RTVSPropertyOp45
 70
     1
102
RTVSPropertyOp46
 70
     1
102
RTVSPropertyOp47
 70
     1
102
RTVSPropertyOp48
 70
     1
102
RTVSPropertyOp49
 70
     1
102
RTVSPropertyOp50
 70
     1
102
RTVSPropertyOp51
 70
     0
102
RTVSPropertyOp52
 70
     0
102
RTVSPropertyOp53
 70
     1
102
RTVSPropertyOp54
 70
     1
102
RTVSPropertyOp55
 70
     1
102
RTVSPropertyOp56
 70
     1
102
RTVSPropertyOp57
 70
     1
102
RTVSPost2010Prop28
280
     0
102
RTVSPost2010PropOp28
 70
     1
102
RTVSPost2010Prop29
280
     1
102
RTVSPost2010PropOp29
 70
     1
102
RTVSPost2010Prop30
280
     1
102
RTVSPost2010PropOp30
 70
     1
102
RTVSPost2010Prop31
280
     0
102
RTVSPost2010PropOp31
 70
     1
102
RTVSPost2010Prop32
280
     0
102
RTVSPost2010PropOp32
 70
     1
102
RTVSPost2010Prop33
280
     0
102
RTVSPost2010PropOp33
 70
     1
102
RTVSPost2010Prop34
280
     0
102
RTVSPost2010PropOp34
 70
     1
102
RTVSPost2010Prop35
280
     0
102
RTVSPost2010PropOp35
 70
     1
102
RTVSPost2010Prop36
280
     0
102
RTVSPost2010PropOp36
 70
     1
102
RTVSPost2010Prop37
 90
       50
102
RTVSPost2010PropOp37
 70
     1
102
RTVSPost2010Prop38
140
0.0
102
RTVSPost2010PropOp38
 70
     1
102
RTVSPost2010Prop39
140
1.0
102
RTVSPost2010PropOp39
 70
     1
102
RTVSPost2010Prop40
 90
        0
102
RTVSPost2010PropOp40
 70
     1
102
RTVSPost2010Prop41ColorIndex
 90
       18
102
RTVSPost2010Prop41ColorRGB
 90
        0
102
RTVSPost2010PropOp41
 70
     1
102
RTVSPost2010Prop42
 90
       50
102
RTVSPost2010PropOp42
 70
     1
102
RTVSPost2010Prop43
 90
        3
102
RTVSPost2010PropOp43
 70
     1
102
RTVSPost2010Prop44ColorIndex
 90
        5
102
RTVSPost2010Prop44ColorRGB
 90
      255
102
RTVSPost2010PropOp44
 70
     1
102
RTVSPost2010Prop45
280
     0
102
RTVSPost2010PropOp45
 70
     1
102
RTVSPost2010Prop46
 90
       50
102
RTVSPost2010PropOp46
 70
     1
102
RTVSPost2010Prop47
 90
       50
102
RTVSPost2010PropOp47
 70
     1
102
RTVSPost2010Prop48
 90
       50
102
RTVSPost2010PropOp48
 70
     1
102
RTVSPost2010Prop49
280
     0
102
RTVSPost2010PropOp49
 70
     1
102
RTVSPost2010Prop50
 90
       50
102
RTVSPost2010PropOp50
 70
     1
102
RTVSPost2010Prop51ColorIndex
 90
      256
102
RTVSPost2010Prop51ColorRGB
 90
-16777216
102
RTVSPost2010PropOp51
 70
     0
102
RTVSPost2010Prop52
140
1.0
102
RTVSPost2010PropOp52
 70
     0
102
RTVSPost2010Prop53
 90
        2
102
RTVSPost2010PropOp53
 70
     1
102
RTVSPost2010Prop54
  1
strokes_ogs.tif
102
RTVSPost2010PropOp54
 70
     1
102
RTVSPost2010Prop55
280
     0
102
RTVSPost2010PropOp55
 70
     1
102
RTVSPost2010Prop56
140
1.0
102
RTVSPost2010PropOp56
 70
     1
102
RTVSPost2010Prop57
140
1.0
102
RTVSPost2010PropOp57
 70
     1
  0
XRECORD
  5
2BC
102
{ACAD_REACTORS
330
2BB
102
}
330
2BB
100
AcDbXrecord
280
     1
102
RTVSPropertyOp0
 70
     1
102
RTVSPropertyOp1
 70
     1
102
RTVSPropertyOp2
 70
     1
102
RTVSPropertyOp3
 70
     1
102
RTVSPropertyOp4
 70
     1
102
RTVSPropertyOp5
 70
     1
102
RTVSPropertyOp6
 70
     1
102
RTVSPropertyOp7
 70
     1
102
RTVSPropertyOp8
 70
     1
102
RTVSPropertyOp9
 70
     1
102
RTVSPropertyOp10
 70
     1
102
RTVSPropertyOp11
 70
     1
102
RTVSPropertyOp12
 70
     1
102
RTVSPropertyOp13
 70
     1
102
RTVSPropertyOp14
 70
     1
102
RTVSPropertyOp15
 70
     1
102
RTVSPropertyOp16
 70
     1
102
RTVSPropertyOp17
 70
     1
102
RTVSPropertyOp18
 70
     1
102
RTVSPropertyOp19
 70
     1
102
RTVSPropertyOp20
 70
     1
102
RTVSPropertyOp21
 70
     1
102
RTVSPropertyOp22
 70
     1
102
RTVSPropertyOp23
 70
     1
102
RTVSPropertyOp24
 70
     1
102
RTVSPropertyOp25
 70
     1
102
RTVSPropertyOp26
 70
     1
102
RTVSPropertyOp27
 70
     1
102
RTVSPropertyOp28
 70
     1
102
RTVSPropertyOp29
 70
     1
102
RTVSPropertyOp30
 70
     1
102
RTVSPropertyOp31
 70
     1
102
RTVSPropertyOp32
 70
     1
102
RTVSPropertyOp33
 70
     1
102
RTVSPropertyOp34
 70
     1
102
RTVSPropertyOp35
 70
     1
102
RTVSPropertyOp36
 70
     1
102
RTVSPropertyOp37
 70
     1
102
RTVSPropertyOp38
 70
     1
102
RTVSPropertyOp39
 70
     1
102
RTVSPropertyOp40
 70
     1
102
RTVSPropertyOp41
 70
     1
102
RTVSPropertyOp42
 70
     1
102
RTVSPropertyOp43
 70
     1
102
RTVSPropertyOp44
 70
     1
102
RTVSPropertyOp45
 70
     1
102
RTVSPropertyOp46
 70
     1
102
RTVSPropertyOp47
 70
     1
102
RTVSPropertyOp48
 70
     1
102
RTVSPropertyOp49
 70
     1
102
RTVSPropertyOp50
 70
     1
102
RTVSPropertyOp51
 70
     0
102
RTVSPropertyOp52
 70
     0
102
RTVSPropertyOp53
 70
     1
102
RTVSPropertyOp54
 70
     1
102
RTVSPropertyOp55
 70
     1
102
RTVSPropertyOp56
 70
     1
102
RTVSPropertyOp57
 70
     1
102
RTVSPost2010Prop28
280
     0
102
RTVSPost2010PropOp28
 70
     1
102
RTVSPost2010Prop29
280
     1
102
RTVSPost2010PropOp29
 70
     1
102
RTVSPost2010Prop30
280
     1
102
RTVSPost2010PropOp30
 70
     1
102
RTVSPost2010Prop31
280
     0
102
RTVSPost2010PropOp31
 70
     1
102
RTVSPost2010Prop32
280
     0
102
RTVSPost2010PropOp32
 70
     1
102
RTVSPost2010Prop33
280
     0
102
RTVSPost2010PropOp33
 70
     1
102
RTVSPost2010Prop34
280
     0
102
RTVSPost2010PropOp34
 70
     1
102
RTVSPost2010Prop35
280
     0
102
RTVSPost2010PropOp35
 70
     1
102
RTVSPost2010Prop36
280
     0
102
RTVSPost2010PropOp36
 70
     1
102
RTVSPost2010Prop37
 90
       50
102
RTVSPost2010PropOp37
 70
     1
102
RTVSPost2010Prop38
140
0.0
102
RTVSPost2010PropOp38
 70
     1
102
RTVSPost2010Prop39
140
1.0
102
RTVSPost2010PropOp39
 70
     1
102
RTVSPost2010Prop40
 90
        0
102
RTVSPost2010PropOp40
 70
     1
102
RTVSPost2010Prop41ColorIndex
 90
       18
102
RTVSPost2010Prop41ColorRGB
 90
        0
102
RTVSPost2010PropOp41
 70
     1
102
RTVSPost2010Prop42
 90
       50
102
RTVSPost2010PropOp42
 70
     1
102
RTVSPost2010Prop43
 90
        3
102
RTVSPost2010PropOp43
 70
     1
102
RTVSPost2010Prop44ColorIndex
 90
        5
102
RTVSPost2010Prop44ColorRGB
 90
      255
102
RTVSPost2010PropOp44
 70
     1
102
RTVSPost2010Prop45
280
     0
102
RTVSPost2010PropOp45
 70
     1
102
RTVSPost2010Prop46
 90
       50
102
RTVSPost2010PropOp46
 70
     1
102
RTVSPost2010Prop47
 90
       50
102
RTVSPost2010PropOp47
 70
     1
102
RTVSPost2010Prop48
 90
       50
102
RTVSPost2010PropOp48
 70
     1
102
RTVSPost2010Prop49
280
     0
102
RTVSPost2010PropOp49
 70
     1
102
RTVSPost2010Prop50
 90
       50
102
RTVSPost2010PropOp50
 70
     1
102
RTVSPost2010Prop51ColorIndex
 90
      256
102
RTVSPost2010Prop51ColorRGB
 90
-16777216
102
RTVSPost2010PropOp51
 70
     0
102
RTVSPost2010Prop52
140
1.0
102
RTVSPost2010PropOp52
 70
     0
102
RTVSPost2010Prop53
 90
        2
102
RTVSPost2010PropOp53
 70
     1
102
RTVSPost2010Prop54
  1
strokes_ogs.tif
102
RTVSPost2010PropOp54
 70
     1
102
RTVSPost2010Prop55
280
     0
102
RTVSPost2010PropOp55
 70
     1
102
RTVSPost2010Prop56
140
1.0
102
RTVSPost2010PropOp56
 70
     1
102
RTVSPost2010Prop57
140
1.0
102
RTVSPost2010PropOp57
 70
     1
  0
XRECORD
  5
2BE
102
{ACAD_REACTORS
330
2BD
102
}
330
2BD
100
AcDbXrecord
280
     1
102
RTVSPropertyOp0
 70
     1
102
RTVSPropertyOp1
 70
     1
102
RTVSPropertyOp2
 70
     1
102
RTVSPropertyOp3
 70
     1
102
RTVSPropertyOp4
 70
     1
102
RTVSPropertyOp5
 70
     1
102
RTVSPropertyOp6
 70
     1
102
RTVSPropertyOp7
 70
     1
102
RTVSPropertyOp8
 70
     1
102
RTVSPropertyOp9
 70
     1
102
RTVSPropertyOp10
 70
     1
102
RTVSPropertyOp11
 70
     1
102
RTVSPropertyOp12
 70
     1
102
RTVSPropertyOp13
 70
     1
102
RTVSPropertyOp14
 70
     1
102
RTVSPropertyOp15
 70
     1
102
RTVSPropertyOp16
 70
     1
102
RTVSPropertyOp17
 70
     1
102
RTVSPropertyOp18
 70
     1
102
RTVSPropertyOp19
 70
     1
102
RTVSPropertyOp20
 70
     1
102
RTVSPropertyOp21
 70
     1
102
RTVSPropertyOp22
 70
     1
102
RTVSPropertyOp23
 70
     1
102
RTVSPropertyOp24
 70
     1
102
RTVSPropertyOp25
 70
     1
102
RTVSPropertyOp26
 70
     1
102
RTVSPropertyOp27
 70
     1
102
RTVSPropertyOp28
 70
     1
102
RTVSPropertyOp29
 70
     1
102
RTVSPropertyOp30
 70
     1
102
RTVSPropertyOp31
 70
     1
102
RTVSPropertyOp32
 70
     1
102
RTVSPropertyOp33
 70
     1
102
RTVSPropertyOp34
 70
     1
102
RTVSPropertyOp35
 70
     1
102
RTVSPropertyOp36
 70
     1
102
RTVSPropertyOp37
 70
     1
102
RTVSPropertyOp38
 70
     1
102
RTVSPropertyOp39
 70
     1
102
RTVSPropertyOp40
 70
     1
102
RTVSPropertyOp41
 70
     1
102
RTVSPropertyOp42
 70
     1
102
RTVSPropertyOp43
 70
     1
102
RTVSPropertyOp44
 70
     1
102
RTVSPropertyOp45
 70
     1
102
RTVSPropertyOp46
 70
     1
102
RTVSPropertyOp47
 70
     1
102
RTVSPropertyOp48
 70
     1
102
RTVSPropertyOp49
 70
     1
102
RTVSPropertyOp50
 70
     1
102
RTVSPropertyOp51
 70
     0
102
RTVSPropertyOp52
 70
     0
102
RTVSPropertyOp53
 70
     1
102
RTVSPropertyOp54
 70
     1
102
RTVSPropertyOp55
 70
     1
102
RTVSPropertyOp56
 70
     1
102
RTVSPropertyOp57
 70
     1
102
RTVSPost2010Prop28
280
     0
102
RTVSPost2010PropOp28
 70
     1
102
RTVSPost2010Prop29
280
     1
102
RTVSPost2010PropOp29
 70
     1
102
RTVSPost2010Prop30
280
     1
102
RTVSPost2010PropOp30
 70
     1
102
RTVSPost2010Prop31
280
     0
102
RTVSPost2010PropOp31
 70
     1
102
RTVSPost2010Prop32
280
     0
102
RTVSPost2010PropOp32
 70
     1
102
RTVSPost2010Prop33
280
     0
102
RTVSPost2010PropOp33
 70
     1
102
RTVSPost2010Prop34
280
     0
102
RTVSPost2010PropOp34
 70
     1
102
RTVSPost2010Prop35
280
     0
102
RTVSPost2010PropOp35
 70
     1
102
RTVSPost2010Prop36
280
     0
102
RTVSPost2010PropOp36
 70
     1
102
RTVSPost2010Prop37
 90
       50
102
RTVSPost2010PropOp37
 70
     1
102
RTVSPost2010Prop38
140
0.0
102
RTVSPost2010PropOp38
 70
     1
102
RTVSPost2010Prop39
140
1.0
102
RTVSPost2010PropOp39
 70
     1
102
RTVSPost2010Prop40
 90
        0
102
RTVSPost2010PropOp40
 70
     1
102
RTVSPost2010Prop41ColorIndex
 90
       18
102
RTVSPost2010Prop41ColorRGB
 90
        0
102
RTVSPost2010PropOp41
 70
     1
102
RTVSPost2010Prop42
 90
       50
102
RTVSPost2010PropOp42
 70
     1
102
RTVSPost2010Prop43
 90
        3
102
RTVSPost2010PropOp43
 70
     1
102
RTVSPost2010Prop44ColorIndex
 90
        5
102
RTVSPost2010Prop44ColorRGB
 90
      255
102
RTVSPost2010PropOp44
 70
     1
102
RTVSPost2010Prop45
280
     0
102
RTVSPost2010PropOp45
 70
     1
102
RTVSPost2010Prop46
 90
       50
102
RTVSPost2010PropOp46
 70
     1
102
RTVSPost2010Prop47
 90
       50
102
RTVSPost2010PropOp47
 70
     1
102
RTVSPost2010Prop48
 90
       50
102
RTVSPost2010PropOp48
 70
     1
102
RTVSPost2010Prop49
280
     0
102
RTVSPost2010PropOp49
 70
     1
102
RTVSPost2010Prop50
 90
       50
102
RTVSPost2010PropOp50
 70
     1
102
RTVSPost2010Prop51ColorIndex
 90
      256
102
RTVSPost2010Prop51ColorRGB
 90
-16777216
102
RTVSPost2010PropOp51
 70
     0
102
RTVSPost2010Prop52
140
1.0
102
RTVSPost2010PropOp52
 70
     0
102
RTVSPost2010Prop53
 90
        2
102
RTVSPost2010PropOp53
 70
     1
102
RTVSPost2010Prop54
  1
strokes_ogs.tif
102
RTVSPost2010PropOp54
 70
     1
102
RTVSPost2010Prop55
280
     0
102
RTVSPost2010PropOp55
 70
     1
102
RTVSPost2010Prop56
140
1.0
102
RTVSPost2010PropOp56
 70
     1
102
RTVSPost2010Prop57
140
1.0
102
RTVSPost2010PropOp57
 70
     1
  0
XRECORD
  5
2AE
102
{ACAD_REACTORS
330
2AD
102
}
330
2AD
100
AcDbXrecord
280
     1
102
RTVSPropertyOp0
 70
     1
102
RTVSPropertyOp1
 70
     1
102
RTVSPropertyOp2
 70
     1
102
RTVSPropertyOp3
 70
     1
102
RTVSPropertyOp4
 70
     1
102
RTVSPropertyOp5
 70
     1
102
RTVSPropertyOp6
 70
     1
102
RTVSPropertyOp7
 70
     1
102
RTVSPropertyOp8
 70
     1
102
RTVSPropertyOp9
 70
     1
102
RTVSPropertyOp10
 70
     1
102
RTVSPropertyOp11
 70
     1
102
RTVSPropertyOp12
 70
     1
102
RTVSPropertyOp13
 70
     1
102
RTVSPropertyOp14
 70
     1
102
RTVSPropertyOp15
 70
     1
102
RTVSPropertyOp16
 70
     1
102
RTVSPropertyOp17
 70
     1
102
RTVSPropertyOp18
 70
     1
102
RTVSPropertyOp19
 70
     1
102
RTVSPropertyOp20
 70
     1
102
RTVSPropertyOp21
 70
     1
102
RTVSPropertyOp22
 70
     1
102
RTVSPropertyOp23
 70
     1
102
RTVSPropertyOp24
 70
     1
102
RTVSPropertyOp25
 70
     1
102
RTVSPropertyOp26
 70
     1
102
RTVSPropertyOp27
 70
     1
102
RTVSPropertyOp28
 70
     1
102
RTVSPropertyOp29
 70
     1
102
RTVSPropertyOp30
 70
     1
102
RTVSPropertyOp31
 70
     1
102
RTVSPropertyOp32
 70
     1
102
RTVSPropertyOp33
 70
     1
102
RTVSPropertyOp34
 70
     1
102
RTVSPropertyOp35
 70
     1
102
RTVSPropertyOp36
 70
     1
102
RTVSPropertyOp37
 70
     1
102
RTVSPropertyOp38
 70
     1
102
RTVSPropertyOp39
 70
     1
102
RTVSPropertyOp40
 70
     1
102
RTVSPropertyOp41
 70
     1
102
RTVSPropertyOp42
 70
     1
102
RTVSPropertyOp43
 70
     1
102
RTVSPropertyOp44
 70
     1
102
RTVSPropertyOp45
 70
     1
102
RTVSPropertyOp46
 70
     1
102
RTVSPropertyOp47
 70
     1
102
RTVSPropertyOp48
 70
     1
102
RTVSPropertyOp49
 70
     1
102
RTVSPropertyOp50
 70
     1
102
RTVSPropertyOp51
 70
     0
102
RTVSPropertyOp52
 70
     0
102
RTVSPropertyOp53
 70
     1
102
RTVSPropertyOp54
 70
     1
102
RTVSPropertyOp55
 70
     1
102
RTVSPropertyOp56
 70
     1
102
RTVSPropertyOp57
 70
     1
102
RTVSPost2010Prop28
280
     0
102
RTVSPost2010PropOp28
 70
     1
102
RTVSPost2010Prop29
280
     1
102
RTVSPost2010PropOp29
 70
     1
102
RTVSPost2010Prop30
280
     1
102
RTVSPost2010PropOp30
 70
     1
102
RTVSPost2010Prop31
280
     0
102
RTVSPost2010PropOp31
 70
     1
102
RTVSPost2010Prop32
280
     0
102
RTVSPost2010PropOp32
 70
     1
102
RTVSPost2010Prop33
280
     0
102
RTVSPost2010PropOp33
 70
     1
102
RTVSPost2010Prop34
280
     0
102
RTVSPost2010PropOp34
 70
     1
102
RTVSPost2010Prop35
280
     0
102
RTVSPost2010PropOp35
 70
     1
102
RTVSPost2010Prop36
280
     0
102
RTVSPost2010PropOp36
 70
     1
102
RTVSPost2010Prop37
 90
       50
102
RTVSPost2010PropOp37
 70
     1
102
RTVSPost2010Prop38
140
0.0
102
RTVSPost2010PropOp38
 70
     1
102
RTVSPost2010Prop39
140
1.0
102
RTVSPost2010PropOp39
 70
     1
102
RTVSPost2010Prop40
 90
        0
102
RTVSPost2010PropOp40
 70
     1
102
RTVSPost2010Prop41ColorIndex
 90
       18
102
RTVSPost2010Prop41ColorRGB
 90
        0
102
RTVSPost2010PropOp41
 70
     1
102
RTVSPost2010Prop42
 90
       50
102
RTVSPost2010PropOp42
 70
     1
102
RTVSPost2010Prop43
 90
        3
102
RTVSPost2010PropOp43
 70
     1
102
RTVSPost2010Prop44ColorIndex
 90
        5
102
RTVSPost2010Prop44ColorRGB
 90
      255
102
RTVSPost2010PropOp44
 70
     1
102
RTVSPost2010Prop45
280
     0
102
RTVSPost2010PropOp45
 70
     1
102
RTVSPost2010Prop46
 90
       50
102
RTVSPost2010PropOp46
 70
     1
102
RTVSPost2010Prop47
 90
       50
102
RTVSPost2010PropOp47
 70
     1
102
RTVSPost2010Prop48
 90
       50
102
RTVSPost2010PropOp48
 70
     1
102
RTVSPost2010Prop49
280
     0
102
RTVSPost2010PropOp49
 70
     1
102
RTVSPost2010Prop50
 90
       50
102
RTVSPost2010PropOp50
 70
     1
102
RTVSPost2010Prop51ColorIndex
 90
      256
102
RTVSPost2010Prop51ColorRGB
 90
-16777216
102
RTVSPost2010PropOp51
 70
     0
102
RTVSPost2010Prop52
140
1.0
102
RTVSPost2010PropOp52
 70
     0
102
RTVSPost2010Prop53
 90
        2
102
RTVSPost2010PropOp53
 70
     1
102
RTVSPost2010Prop54
  1
strokes_ogs.tif
102
RTVSPost2010PropOp54
 70
     1
102
RTVSPost2010Prop55
280
     0
102
RTVSPost2010PropOp55
 70
     1
102
RTVSPost2010Prop56
140
1.0
102
RTVSPost2010PropOp56
 70
     1
102
RTVSPost2010Prop57
140
1.0
102
RTVSPost2010PropOp57
 70
     1
  0
XRECORD
  5
2A0
102
{ACAD_REACTORS
330
29F
102
}
330
29F
100
AcDbXrecord
280
     1
102
RTVSPropertyOp0
 70
     1
102
RTVSPropertyOp1
 70
     1
102
RTVSPropertyOp2
 70
     1
102
RTVSPropertyOp3
 70
     1
102
RTVSPropertyOp4
 70
     1
102
RTVSPropertyOp5
 70
     1
102
RTVSPropertyOp6
 70
     1
102
RTVSPropertyOp7
 70
     1
102
RTVSPropertyOp8
 70
     1
102
RTVSPropertyOp9
 70
     1
102
RTVSPropertyOp10
 70
     1
102
RTVSPropertyOp11
 70
     1
102
RTVSPropertyOp12
 70
     1
102
RTVSPropertyOp13
 70
     1
102
RTVSPropertyOp14
 70
     1
102
RTVSPropertyOp15
 70
     1
102
RTVSPropertyOp16
 70
     1
102
RTVSPropertyOp17
 70
     1
102
RTVSPropertyOp18
 70
     1
102
RTVSPropertyOp19
 70
     1
102
RTVSPropertyOp20
 70
     1
102
RTVSPropertyOp21
 70
     1
102
RTVSPropertyOp22
 70
     1
102
RTVSPropertyOp23
 70
     1
102
RTVSPropertyOp24
 70
     1
102
RTVSPropertyOp25
 70
     1
102
RTVSPropertyOp26
 70
     1
102
RTVSPropertyOp27
 70
     1
102
RTVSPropertyOp28
 70
     1
102
RTVSPropertyOp29
 70
     1
102
RTVSPropertyOp30
 70
     1
102
RTVSPropertyOp31
 70
     1
102
RTVSPropertyOp32
 70
     1
102
RTVSPropertyOp33
 70
     1
102
RTVSPropertyOp34
 70
     1
102
RTVSPropertyOp35
 70
     1
102
RTVSPropertyOp36
 70
     1
102
RTVSPropertyOp37
 70
     1
102
RTVSPropertyOp38
 70
     1
102
RTVSPropertyOp39
 70
     1
102
RTVSPropertyOp40
 70
     1
102
RTVSPropertyOp41
 70
     1
102
RTVSPropertyOp42
 70
     1
102
RTVSPropertyOp43
 70
     1
102
RTVSPropertyOp44
 70
     1
102
RTVSPropertyOp45
 70
     1
102
RTVSPropertyOp46
 70
     1
102
RTVSPropertyOp47
 70
     1
102
RTVSPropertyOp48
 70
     1
102
RTVSPropertyOp49
 70
     1
102
RTVSPropertyOp50
 70
     1
102
RTVSPropertyOp51
 70
     0
102
RTVSPropertyOp52
 70
     0
102
RTVSPropertyOp53
 70
     1
102
RTVSPropertyOp54
 70
     1
102
RTVSPropertyOp55
 70
     1
102
RTVSPropertyOp56
 70
     1
102
RTVSPropertyOp57
 70
     1
102
RTVSPost2010Prop28
280
     0
102
RTVSPost2010PropOp28
 70
     1
102
RTVSPost2010Prop29
280
     1
102
RTVSPost2010PropOp29
 70
     1
102
RTVSPost2010Prop30
280
     1
102
RTVSPost2010PropOp30
 70
     1
102
RTVSPost2010Prop31
280
     0
102
RTVSPost2010PropOp31
 70
     1
102
RTVSPost2010Prop32
280
     0
102
RTVSPost2010PropOp32
 70
     1
102
RTVSPost2010Prop33
280
     0
102
RTVSPost2010PropOp33
 70
     1
102
RTVSPost2010Prop34
280
     0
102
RTVSPost2010PropOp34
 70
     1
102
RTVSPost2010Prop35
280
     0
102
RTVSPost2010PropOp35
 70
     1
102
RTVSPost2010Prop36
280
     0
102
RTVSPost2010PropOp36
 70
     1
102
RTVSPost2010Prop37
 90
       50
102
RTVSPost2010PropOp37
 70
     1
102
RTVSPost2010Prop38
140
0.0
102
RTVSPost2010PropOp38
 70
     1
102
RTVSPost2010Prop39
140
1.0
102
RTVSPost2010PropOp39
 70
     1
102
RTVSPost2010Prop40
 90
        0
102
RTVSPost2010PropOp40
 70
     1
102
RTVSPost2010Prop41ColorIndex
 90
       18
102
RTVSPost2010Prop41ColorRGB
 90
        0
102
RTVSPost2010PropOp41
 70
     1
102
RTVSPost2010Prop42
 90
       50
102
RTVSPost2010PropOp42
 70
     1
102
RTVSPost2010Prop43
 90
        3
102
RTVSPost2010PropOp43
 70
     1
102
RTVSPost2010Prop44ColorIndex
 90
        5
102
RTVSPost2010Prop44ColorRGB
 90
      255
102
RTVSPost2010PropOp44
 70
     1
102
RTVSPost2010Prop45
280
     0
102
RTVSPost2010PropOp45
 70
     1
102
RTVSPost2010Prop46
 90
       50
102
RTVSPost2010PropOp46
 70
     1
102
RTVSPost2010Prop47
 90
       50
102
RTVSPost2010PropOp47
 70
     1
102
RTVSPost2010Prop48
 90
       50
102
RTVSPost2010PropOp48
 70
     1
102
RTVSPost2010Prop49
280
     0
102
RTVSPost2010PropOp49
 70
     1
102
RTVSPost2010Prop50
 90
       50
102
RTVSPost2010PropOp50
 70
     1
102
RTVSPost2010Prop51ColorIndex
 90
      256
102
RTVSPost2010Prop51ColorRGB
 90
-16777216
102
RTVSPost2010PropOp51
 70
     0
102
RTVSPost2010Prop52
140
1.0
102
RTVSPost2010PropOp52
 70
     0
102
RTVSPost2010Prop53
 90
        2
102
RTVSPost2010PropOp53
 70
     1
102
RTVSPost2010Prop54
  1
strokes_ogs.tif
102
RTVSPost2010PropOp54
 70
     1
102
RTVSPost2010Prop55
280
     0
102
RTVSPost2010PropOp55
 70
     1
102
RTVSPost2010Prop56
140
1.0
102
RTVSPost2010PropOp56
 70
     1
102
RTVSPost2010Prop57
140
1.0
102
RTVSPost2010PropOp57
 70
     1
  0
XRECORD
  5
2C0
102
{ACAD_REACTORS
330
2BF
102
}
330
2BF
100
AcDbXrecord
280
     1
102
RTVSPropertyOp0
 70
     1
102
RTVSPropertyOp1
 70
     1
102
RTVSPropertyOp2
 70
     1
102
RTVSPropertyOp3
 70
     1
102
RTVSPropertyOp4
 70
     1
102
RTVSPropertyOp5
 70
     1
102
RTVSPropertyOp6
 70
     1
102
RTVSPropertyOp7
 70
     1
102
RTVSPropertyOp8
 70
     1
102
RTVSPropertyOp9
 70
     1
102
RTVSPropertyOp10
 70
     1
102
RTVSPropertyOp11
 70
     1
102
RTVSPropertyOp12
 70
     1
102
RTVSPropertyOp13
 70
     1
102
RTVSPropertyOp14
 70
     1
102
RTVSPropertyOp15
 70
     1
102
RTVSPropertyOp16
 70
     1
102
RTVSPropertyOp17
 70
     1
102
RTVSPropertyOp18
 70
     1
102
RTVSPropertyOp19
 70
     1
102
RTVSPropertyOp20
 70
     1
102
RTVSPropertyOp21
 70
     1
102
RTVSPropertyOp22
 70
     1
102
RTVSPropertyOp23
 70
     1
102
RTVSPropertyOp24
 70
     1
102
RTVSPropertyOp25
 70
     1
102
RTVSPropertyOp26
 70
     1
102
RTVSPropertyOp27
 70
     1
102
RTVSPropertyOp28
 70
     1
102
RTVSPropertyOp29
 70
     1
102
RTVSPropertyOp30
 70
     1
102
RTVSPropertyOp31
 70
     1
102
RTVSPropertyOp32
 70
     1
102
RTVSPropertyOp33
 70
     1
102
RTVSPropertyOp34
 70
     1
102
RTVSPropertyOp35
 70
     1
102
RTVSPropertyOp36
 70
     1
102
RTVSPropertyOp37
 70
     1
102
RTVSPropertyOp38
 70
     1
102
RTVSPropertyOp39
 70
     1
102
RTVSPropertyOp40
 70
     1
102
RTVSPropertyOp41
 70
     1
102
RTVSPropertyOp42
 70
     1
102
RTVSPropertyOp43
 70
     1
102
RTVSPropertyOp44
 70
     1
102
RTVSPropertyOp45
 70
     1
102
RTVSPropertyOp46
 70
     1
102
RTVSPropertyOp47
 70
     1
102
RTVSPropertyOp48
 70
     1
102
RTVSPropertyOp49
 70
     1
102
RTVSPropertyOp50
 70
     1
102
RTVSPropertyOp51
 70
     0
102
RTVSPropertyOp52
 70
     0
102
RTVSPropertyOp53
 70
     1
102
RTVSPropertyOp54
 70
     1
102
RTVSPropertyOp55
 70
     1
102
RTVSPropertyOp56
 70
     1
102
RTVSPropertyOp57
 70
     1
102
RTVSPost2010Prop28
280
     0
102
RTVSPost2010PropOp28
 70
     1
102
RTVSPost2010Prop29
280
     1
102
RTVSPost2010PropOp29
 70
     1
102
RTVSPost2010Prop30
280
     1
102
RTVSPost2010PropOp30
 70
     1
102
RTVSPost2010Prop31
280
     0
102
RTVSPost2010PropOp31
 70
     1
102
RTVSPost2010Prop32
280
     0
102
RTVSPost2010PropOp32
 70
     1
102
RTVSPost2010Prop33
280
     0
102
RTVSPost2010PropOp33
 70
     1
102
RTVSPost2010Prop34
280
     0
102
RTVSPost2010PropOp34
 70
     1
102
RTVSPost2010Prop35
280
     0
102
RTVSPost2010PropOp35
 70
     1
102
RTVSPost2010Prop36
280
     0
102
RTVSPost2010PropOp36
 70
     1
102
RTVSPost2010Prop37
 90
       50
102
RTVSPost2010PropOp37
 70
     1
102
RTVSPost2010Prop38
140
0.0
102
RTVSPost2010PropOp38
 70
     1
102
RTVSPost2010Prop39
140
1.0
102
RTVSPost2010PropOp39
 70
     1
102
RTVSPost2010Prop40
 90
        0
102
RTVSPost2010PropOp40
 70
     1
102
RTVSPost2010Prop41ColorIndex
 90
       18
102
RTVSPost2010Prop41ColorRGB
 90
        0
102
RTVSPost2010PropOp41
 70
     1
102
RTVSPost2010Prop42
 90
       50
102
RTVSPost2010PropOp42
 70
     1
102
RTVSPost2010Prop43
 90
        3
102
RTVSPost2010PropOp43
 70
     1
102
RTVSPost2010Prop44ColorIndex
 90
        5
102
RTVSPost2010Prop44ColorRGB
 90
      255
102
RTVSPost2010PropOp44
 70
     1
102
RTVSPost2010Prop45
280
     0
102
RTVSPost2010PropOp45
 70
     1
102
RTVSPost2010Prop46
 90
       50
102
RTVSPost2010PropOp46
 70
     1
102
RTVSPost2010Prop47
 90
       50
102
RTVSPost2010PropOp47
 70
     1
102
RTVSPost2010Prop48
 90
       50
102
RTVSPost2010PropOp48
 70
     1
102
RTVSPost2010Prop49
280
     0
102
RTVSPost2010PropOp49
 70
     1
102
RTVSPost2010Prop50
 90
       50
102
RTVSPost2010PropOp50
 70
     1
102
RTVSPost2010Prop51ColorIndex
 90
      256
102
RTVSPost2010Prop51ColorRGB
 90
-16777216
102
RTVSPost2010PropOp51
 70
     0
102
RTVSPost2010Prop52
140
1.0
102
RTVSPost2010PropOp52
 70
     0
102
RTVSPost2010Prop53
 90
        2
102
RTVSPost2010PropOp53
 70
     1
102
RTVSPost2010Prop54
  1
strokes_ogs.tif
102
RTVSPost2010PropOp54
 70
     1
102
RTVSPost2010Prop55
280
     0
102
RTVSPost2010PropOp55
 70
     1
102
RTVSPost2010Prop56
140
1.0
102
RTVSPost2010PropOp56
 70
     1
102
RTVSPost2010Prop57
140
1.0
102
RTVSPost2010PropOp57
 70
     1
  0
ENDSEC
  0
EOF
