  0
SECTION
  2
HEADER
  9
$ACADVER
  1
AC1015
  9
$ACADMAINTVER
 70
    20
  9
$DWGCODEPAGE
  3
ANSI_1252
  9
$INSBASE
 10
0.0
 20
0.0
 30
0.0
  9
$EXTMIN
 10
0.0
 20
0.0
 30
0.0
  9
$EXTMAX
 10
420.0
 20
297.0
 30
0.0
  9
$LIMMIN
 10
0.0
 20
0.0
  9
$LIMMAX
 10
415.0
 20
297.0
  9
$ORTHOMODE
 70
     0
  9
$REGENMODE
 70
     1
  9
$FILLMODE
 70
     1
  9
$QTEXTMODE
 70
     0
  9
$MIRRTEXT
 70
     1
  9
$LTSCALE
 40
1.0
  9
$ATTMODE
 70
     1
  9
$TEXTSIZE
 40
0.2
  9
$TRACEWID
 40
0.05
  9
$TEXTSTYLE
  7
Standard
  9
$CLAYER
  8
0
  9
$CELTYPE
  6
ByLayer
  9
$CECOLOR
 62
   256
  9
$CELTSCALE
 40
1.0
  9
$DISPSILH
 70
     0
  9
$DIMSCALE
 40
1.0
  9
$DIMASZ
 40
0.18
  9
$DIMEXO
 40
0.0625
  9
$DIMDLI
 40
0.38
  9
$DIMRND
 40
0.0
  9
$DIMDLE
 40
0.0
  9
$DIMEXE
 40
0.18
  9
$DIMTP
 40
0.0
  9
$DIMTM
 40
0.0
  9
$DIMTXT
 40
0.18
  9
$DIMCEN
 40
0.09
  9
$DIMTSZ
 40
0.0
  9
$DIMTOL
 70
     0
  9
$DIMLIM
 70
     0
  9
$DIMTIH
 70
     1
  9
$DIMTOH
 70
     1
  9
$DIMSE1
 70
     0
  9
$DIMSE2
 70
     0
  9
$DIMTAD
 70
     0
  9
$DIMZIN
 70
     0
  9
$DIMBLK
  1

  9
$DIMASO
 70
     1
  9
$DIMSHO
 70
     1
  9
$DIMPOST
  1

  9
$DIMAPOST
  1

  9
$DIMALT
 70
     0
  9
$DIMALTD
 70
     2
  9
$DIMALTF
 40
25.4
  9
$DIMLFAC
 40
1.0
  9
$DIMTOFL
 70
     0
  9
$DIMTVP
 40
0.0
  9
$DIMTIX
 70
     0
  9
$DIMSOXD
 70
     0
  9
$DIMSAH
 70
     0
  9
$DIMBLK1
  1

  9
$DIMBLK2
  1

  9
$DIMSTYLE
  2
Standard
  9
$DIMCLRD
 70
     0
  9
$DIMCLRE
 70
     0
  9
$DIMCLRT
 70
     0
  9
$DIMTFAC
 40
1.0
  9
$DIMGAP
 40
0.09
  9
$DIMJUST
 70
     0
  9
$DIMSD1
 70
     0
  9
$DIMSD2
 70
     0
  9
$DIMTOLJ
 70
     1
  9
$DIMTZIN
 70
     0
  9
$DIMALTZ
 70
     0
  9
$DIMALTTZ
 70
     0
  9
$DIMUPT
 70
     0
  9
$DIMDEC
 70
     4
  9
$DIMTDEC
 70
     4
  9
$DIMALTU
 70
     2
  9
$DIMALTTD
 70
     2
  9
$DIMTXSTY
  7
Standard
  9
$DIMAUNIT
 70
     0
  9
$DIMADEC
 70
     0
  9
$DIMALTRND
 40
0.0
  9
$DIMAZIN
 70
     0
  9
$DIMDSEP
 70
    46
  9
$DIMATFIT
 70
     3
  9
$DIMFRAC
 70
     0
  9
$DIMLDRBLK
  1

  9
$DIMLUNIT
 70
     2
  9
$DIMLWD
 70
    -2
  9
$DIMLWE
 70
    -2
  9
$DIMTMOVE
 70
     0
  9
$LUNITS
 70
     2
  9
$LUPREC
 70
     4
  9
$SKETCHINC
 40
0.1
  9
$FILLETRAD
 40
0.5
  9
$AUNITS
 70
     0
  9
$AUPREC
 70
     0
  9
$MENU
  1
.
  9
$ELEVATION
 40
0.0
  9
$PELEVATION
 40
0.0
  9
$THICKNESS
 40
0.0
  9
$LIMCHECK
 70
     0
  9
$CHAMFERA
 40
0.5
  9
$CHAMFERB
 40
0.5
  9
$CHAMFERC
 40
1.0
  9
$CHAMFERD
 40
0.0
  9
$SKPOLY
 70
     0
  9
$TDCREATE
 40
2456125.481310116
  9
$TDUCREATE
 40
2456125.397976783
  9
$TDUPDATE
 40
2456125.635948403
  9
$TDUUPDATE
 40
2456125.552615069
  9
$TDINDWG
 40
0.0017210995
  9
$TDUSRTIMER
 40
0.0017210995
  9
$USRTIMER
 70
     1
  9
$ANGBASE
 50
0.0
  9
$ANGDIR
 70
     0
  9
$PDMODE
 70
     0
  9
$PDSIZE
 40
0.0
  9
$PLINEWID
 40
0.0
  9
$SPLFRAME
 70
     0
  9
$SPLINETYPE
 70
     6
  9
$SPLINESEGS
 70
     8
  9
$HANDSEED
  5
4BB
  9
$SURFTAB1
 70
     6
  9
$SURFTAB2
 70
     6
  9
$SURFTYPE
 70
     6
  9
$SURFU
 70
     6
  9
$SURFV
 70
     6
  9
$UCSBASE
  2

  9
$UCSNAME
  2

  9
$UCSORG
 10
0.0
 20
0.0
 30
0.0
  9
$UCSXDIR
 10
1.0
 20
0.0
 30
0.0
  9
$UCSYDIR
 10
0.0
 20
1.0
 30
0.0
  9
$UCSORTHOREF
  2

  9
$UCSORTHOVIEW
 70
     0
  9
$UCSORGTOP
 10
0.0
 20
0.0
 30
0.0
  9
$UCSORGBOTTOM
 10
0.0
 20
0.0
 30
0.0
  9
$UCSORGLEFT
 10
0.0
 20
0.0
 30
0.0
  9
$UCSORGRIGHT
 10
0.0
 20
0.0
 30
0.0
  9
$UCSORGFRONT
 10
0.0
 20
0.0
 30
0.0
  9
$UCSORGBACK
 10
0.0
 20
0.0
 30
0.0
  9
$PUCSBASE
  2

  9
$PUCSNAME
  2

  9
$PUCSORG
 10
0.0
 20
0.0
 30
0.0
  9
$PUCSXDIR
 10
1.0
 20
0.0
 30
0.0
  9
$PUCSYDIR
 10
0.0
 20
1.0
 30
0.0
  9
$PUCSORTHOREF
  2

  9
$PUCSORTHOVIEW
 70
     0
  9
$PUCSORGTOP
 10
0.0
 20
0.0
 30
0.0
  9
$PUCSORGBOTTOM
 10
0.0
 20
0.0
 30
0.0
  9
$PUCSORGLEFT
 10
0.0
 20
0.0
 30
0.0
  9
$PUCSORGRIGHT
 10
0.0
 20
0.0
 30
0.0
  9
$PUCSORGFRONT
 10
0.0
 20
0.0
 30
0.0
  9
$PUCSORGBACK
 10
0.0
 20
0.0
 30
0.0
  9
$USERI1
 70
     0
  9
$USERI2
 70
     0
  9
$USERI3
 70
     0
  9
$USERI4
 70
     0
  9
$USERI5
 70
     0
  9
$USERR1
 40
0.0
  9
$USERR2
 40
0.0
  9
$USERR3
 40
0.0
  9
$USERR4
 40
0.0
  9
$USERR5
 40
0.0
  9
$WORLDVIEW
 70
     1
  9
$SHADEDGE
 70
     3
  9
$SHADEDIF
 70
    70
  9
$TILEMODE
 70
     1
  9
$MAXACTVP
 70
    64
  9
$PINSBASE
 10
0.0
 20
0.0
 30
0.0
  9
$PLIMCHECK
 70
     0
  9
$PEXTMIN
 10
0.0
 20
0.0
 30
0.0
  9
$PEXTMAX
 10
415.0
 20
297.0
 30
0.0
  9
$PLIMMIN
 10
0.0
 20
0.0
  9
$PLIMMAX
 10
415.0
 20
297.0
  9
$UNITMODE
 70
     0
  9
$VISRETAIN
 70
     1
  9
$PLINEGEN
 70
     0
  9
$PSLTSCALE
 70
     1
  9
$TREEDEPTH
 70
  3020
  9
$CMLSTYLE
  2
Standard
  9
$CMLJUST
 70
     0
  9
$CMLSCALE
 40
1.0
  9
$PROXYGRAPHICS
 70
     1
  9
$MEASUREMENT
 70
     0
  9
$CELWEIGHT
370
    -1
  9
$ENDCAPS
280
     0
  9
$JOINSTYLE
280
     0
  9
$LWDISPLAY
290
     0
  9
$INSUNITS
 70
     0
  9
$HYPERLINKBASE
  1

  9
$STYLESHEET
  1

  9
$XEDIT
290
     1
  9
$CEPSNTYPE
380
     0
  9
$PSTYLEMODE
290
     1
  9
$FINGERPRINTGUID
  2
{F088EC0E-4AE9-4B5F-AC40-87E5246272C7}
  9
$VERSIONGUID
  2
{DF719FF5-6921-411A-A838-A77E4E3EC671}
  9
$EXTNAMES
290
     1
  9
$PSVPSCALE
 40
0.0
  9
$OLESTARTUP
290
     0
  0
ENDSEC
  0
SECTION
  2
CLASSES
  0
CLASS
  1
ACDBDICTIONARYWDFLT
  2
AcDbDictionaryWithDefault
  3
ObjectDBX Classes
 90
        0
280
     0
281
     0
  0
CLASS
  1
VISUALSTYLE
  2
AcDbVisualStyle
  3
ObjectDBX Classes
 90
     4095
280
     0
281
     0
  0
CLASS
  1
SCALE
  2
AcDbScale
  3
ObjectDBX Classes
 90
     1153
280
     0
281
     0
  0
CLASS
  1
DICTIONARYVAR
  2
AcDbDictionaryVar
  3
ObjectDBX Classes
 90
        0
280
     0
281
     0
  0
CLASS
  1
ACDBPLACEHOLDER
  2
AcDbPlaceHolder
  3
ObjectDBX Classes
 90
        0
280
     0
281
     0
  0
CLASS
  1
LAYOUT
  2
AcDbLayout
  3
ObjectDBX Classes
 90
        0
280
     0
281
     0
  0
CLASS
  1
MATERIAL
  2
AcDbMaterial
  3
ObjectDBX Classes
 90
     1153
280
     0
281
     0
  0
CLASS
  1
TABLESTYLE
  2
AcDbTableStyle
  3
ObjectDBX Classes
 90
     4095
280
     0
281
     0
  0
CLASS
  1
MLEADERSTYLE
  2
AcDbMLeaderStyle
  3
ACDB_MLEADERSTYLE_CLASS
 90
     4095
280
     0
281
     0
  0
CLASS
  1
CELLSTYLEMAP
  2
AcDbCellStyleMap
  3
ObjectDBX Classes
 90
     1152
280
     0
281
     0
  0
ENDSEC
  0
SECTION
  2
TABLES
  0
TABLE
  2
VPORT
  5
8
330
0
100
AcDbSymbolTable
 70
     1
  0
VPORT
  5
29
330
8
100
AcDbSymbolTableRecord
100
AcDbViewportTableRecord
  2
*Active
 70
     0
 10
0.0
 20
0.0
 11
1.0
 21
1.0
 12
267.4455882352944
 22
148.5
 13
0.0
 23
0.0
 14
0.5
 24
0.5
 15
0.5
 25
0.5
 16
0.0
 26
0.0
 36
1.0
 17
0.0
 27
0.0
 37
0.0
 40
297.0
 41
1.800980392156862
 42
50.0
 43
0.0
 44
0.0
 50
0.0
 51
0.0
 71
     0
 72
   100
 73
     1
 74
     3
 75
     0
 76
     0
 77
     0
 78
     0
281
     0
 65
     1
110
0.0
120
0.0
130
0.0
111
1.0
121
0.0
131
0.0
112
0.0
122
1.0
132
0.0
 79
     0
146
0.0
  0
ENDTAB
  0
TABLE
  2
LTYPE
  5
5
330
0
100
AcDbSymbolTable
 70
    43
  0
LTYPE
  5
14
330
5
100
AcDbSymbolTableRecord
100
AcDbLinetypeTableRecord
  2
ByBlock
 70
     0
  3

 72
    65
 73
     0
 40
0.0
  0
LTYPE
  5
15
330
5
100
AcDbSymbolTableRecord
100
AcDbLinetypeTableRecord
  2
ByLayer
 70
     0
  3

 72
    65
 73
     0
 40
0.0
  0
LTYPE
  5
16
330
5
100
AcDbSymbolTableRecord
100
AcDbLinetypeTableRecord
  2
Continuous
 70
     0
  3
Solid line
 72
    65
 73
     0
 40
0.0
  0
LTYPE
  5
3B
330
5
100
AcDbSymbolTableRecord
100
AcDbLinetypeTableRecord
  2
Fin
 70
     0
  3
________________________________
 72
    65
 73
     0
 40
0.0
  0
LTYPE
  5
3C
330
5
100
AcDbSymbolTableRecord
100
AcDbLinetypeTableRecord
  2
Moyen
 70
     0
  3
________________________________
 72
    65
 73
     0
 40
0.0
  0
LTYPE
  5
3D
330
5
100
AcDbSymbolTableRecord
100
AcDbLinetypeTableRecord
  2
Epais
 70
     0
  3
________________________________
 72
    65
 73
     0
 40
0.0
  0
LTYPE
  5
3E
330
5
100
AcDbSymbolTableRecord
100
AcDbLinetypeTableRecord
  2
Tiret
 70
     0
  3
____    ____    ____    ____    ^D
 72
    65
 73
     4
 40
16.0
 49
4.0
 74
     0
 49
-4.0
 74
     0
 49
4.0
 74
     0
 49
-4.0
 74
     0
  0
LTYPE
  5
3F
330
5
100
AcDbSymbolTableRecord
100
AcDbLinetypeTableRecord
  2
Point
 70
     0
  3
_ _ _ _ _ _ _ _ _ _ _ _ _ _ _ _ ^H
 72
    65
 73
     8
 40
8.0
 49
1.0
 74
     0
 49
-1.0
 74
     0
 49
1.0
 74
     0
 49
-1.0
 74
     0
 49
1.0
 74
     0
 49
-1.0
 74
     0
 49
1.0
 74
     0
 49
-1.0
 74
     0
  0
LTYPE
  5
40
330
5
100
AcDbSymbolTableRecord
100
AcDbLinetypeTableRecord
  2
Axes
 70
     0
  3
_______   _     _______   _     ^D
 72
    65
 73
     4
 40
16.0
 49
7.0
 74
     0
 49
-3.0
 74
     0
 49
1.0
 74
     0
 49
-5.0
 74
     0
  0
LTYPE
  5
41
330
5
100
AcDbSymbolTableRecord
100
AcDbLinetypeTableRecord
  2
AxesDble
 70
     0
  3
_____   _   _   _____   _   _   ^F
 72
    65
 73
     6
 40
16.0
 49
5.0
 74
     0
 49
-3.0
 74
     0
 49
1.0
 74
     0
 49
-3.0
 74
     0
 49
1.0
 74
     0
 49
-3.0
 74
     0
  0
LTYPE
  5
42
330
5
100
AcDbSymbolTableRecord
100
AcDbLinetypeTableRecord
  2
Bleu
 70
     0
  3
________________________________
 72
    65
 73
     0
 40
0.0
  0
LTYPE
  5
43
330
5
100
AcDbSymbolTableRecord
100
AcDbLinetypeTableRecord
  2
Vert
 70
     0
  3
________________________________
 72
    65
 73
     0
 40
0.0
  0
LTYPE
  5
44
330
5
100
AcDbSymbolTableRecord
100
AcDbLinetypeTableRecord
  2
Cyan
 70
     0
  3
________________________________
 72
    65
 73
     0
 40
0.0
  0
LTYPE
  5
45
330
5
100
AcDbSymbolTableRecord
100
AcDbLinetypeTableRecord
  2
Rouge
 70
     0
  3
________________________________
 72
    65
 73
     0
 40
0.0
  0
LTYPE
  5
46
330
5
100
AcDbSymbolTableRecord
100
AcDbLinetypeTableRecord
  2
Violet
 70
     0
  3
________________________________
 72
    65
 73
     0
 40
0.0
  0
LTYPE
  5
47
330
5
100
AcDbSymbolTableRecord
100
AcDbLinetypeTableRecord
  2
Jaune
 70
     0
  3
________________________________
 72
    65
 73
     0
 40
0.0
  0
LTYPE
  5
48
330
5
100
AcDbSymbolTableRecord
100
AcDbLinetypeTableRecord
  2
Noir
 70
     0
  3
________________________________
 72
    65
 73
     0
 40
0.0
  0
LTYPE
  5
49
330
5
100
AcDbSymbolTableRecord
100
AcDbLinetypeTableRecord
  2
Blanc
 70
     0
  3
________________________________
 72
    65
 73
     0
 40
0.0
  0
LTYPE
  5
4A
330
5
100
AcDbSymbolTableRecord
100
AcDbLinetypeTableRecord
  2
Orange
 70
     0
  3
________________________________
 72
    65
 73
     0
 40
0.0
  0
LTYPE
  5
4B
330
5
100
AcDbSymbolTableRecord
100
AcDbLinetypeTableRecord
  2
Brun
 70
     0
  3
________________________________
 72
    65
 73
     0
 40
0.0
  0
LTYPE
  5
4C
330
5
100
AcDbSymbolTableRecord
100
AcDbLinetypeTableRecord
  2
Gris
 70
     0
  3
________________________________
 72
    65
 73
     0
 40
0.0
  0
LTYPE
  5
4D
330
5
100
AcDbSymbolTableRecord
100
AcDbLinetypeTableRecord
  2
Symbol_C
 70
     0
  3
________________________________
 72
    65
 73
     0
 40
0.0
  0
LTYPE
  5
4E
330
5
100
AcDbSymbolTableRecord
100
AcDbLinetypeTableRecord
  2
Symbol_P
 70
     0
  3
________________________________
 72
    65
 73
     0
 40
0.0
  0
LTYPE
  5
4F
330
5
100
AcDbSymbolTableRecord
100
AcDbLinetypeTableRecord
  2
LINE
 70
     0
  3
________________________________
 72
    65
 73
     0
 40
0.0
  0
LTYPE
  5
50
330
5
100
AcDbSymbolTableRecord
100
AcDbLinetypeTableRecord
  2
LINE_1
 70
     0
  3
________________________________
 72
    65
 73
     0
 40
0.0
  0
LTYPE
  5
51
330
5
100
AcDbSymbolTableRecord
100
AcDbLinetypeTableRecord
  2
LINE_2
 70
     0
  3
________________________________
 72
    65
 73
     0
 40
0.0
  0
LTYPE
  5
52
330
5
100
AcDbSymbolTableRecord
100
AcDbLinetypeTableRecord
  2
LINE_3
 70
     0
  3
________________________________
 72
    65
 73
     0
 40
0.0
  0
LTYPE
  5
53
330
5
100
AcDbSymbolTableRecord
100
AcDbLinetypeTableRecord
  2
LINE_4
 70
     0
  3
________________________________
 72
    65
 73
     0
 40
0.0
  0
LTYPE
  5
54
330
5
100
AcDbSymbolTableRecord
100
AcDbLinetypeTableRecord
  2
LINE_5
 70
     0
  3
________________________________
 72
    65
 73
     0
 40
0.0
  0
LTYPE
  5
55
330
5
100
AcDbSymbolTableRecord
100
AcDbLinetypeTableRecord
  2
LINE_6
 70
     0
  3
________________________________
 72
    65
 73
     0
 40
0.0
  0
LTYPE
  5
56
330
5
100
AcDbSymbolTableRecord
100
AcDbLinetypeTableRecord
  2
LINE_7
 70
     0
  3
________________________________
 72
    65
 73
     0
 40
0.0
  0
LTYPE
  5
57
330
5
100
AcDbSymbolTableRecord
100
AcDbLinetypeTableRecord
  2
LINE_8
 70
     0
  3
________________________________
 72
    65
 73
     0
 40
0.0
  0
LTYPE
  5
58
330
5
100
AcDbSymbolTableRecord
100
AcDbLinetypeTableRecord
  2
LINE_9
 70
     0
  3
________________________________
 72
    65
 73
     0
 40
0.0
  0
LTYPE
  5
59
330
5
100
AcDbSymbolTableRecord
100
AcDbLinetypeTableRecord
  2
LINE_10
 70
     0
  3
________________________________
 72
    65
 73
     0
 40
0.0
  0
LTYPE
  5
5A
330
5
100
AcDbSymbolTableRecord
100
AcDbLinetypeTableRecord
  2
LINE_11
 70
     0
  3
________________________________
 72
    65
 73
     0
 40
0.0
  0
LTYPE
  5
5B
330
5
100
AcDbSymbolTableRecord
100
AcDbLinetypeTableRecord
  2
LINE_12
 70
     0
  3
________________________________
 72
    65
 73
     0
 40
0.0
  0
LTYPE
  5
5C
330
5
100
AcDbSymbolTableRecord
100
AcDbLinetypeTableRecord
  2
LINE_13
 70
     0
  3
________________________________
 72
    65
 73
     0
 40
0.0
  0
LTYPE
  5
5D
330
5
100
AcDbSymbolTableRecord
100
AcDbLinetypeTableRecord
  2
LINE_14
 70
     0
  3
________________________________
 72
    65
 73
     0
 40
0.0
  0
LTYPE
  5
5E
330
5
100
AcDbSymbolTableRecord
100
AcDbLinetypeTableRecord
  2
LINE_15
 70
     0
  3
________________________________
 72
    65
 73
     0
 40
0.0
  0
LTYPE
  5
5F
330
5
100
AcDbSymbolTableRecord
100
AcDbLinetypeTableRecord
  2
LINE_16
 70
     0
  3
________________________________
 72
    65
 73
     0
 40
0.0
  0
LTYPE
  5
60
330
5
100
AcDbSymbolTableRecord
100
AcDbLinetypeTableRecord
  2
LINE_17
 70
     0
  3
________________________________
 72
    65
 73
     0
 40
0.0
  0
LTYPE
  5
61
330
5
100
AcDbSymbolTableRecord
100
AcDbLinetypeTableRecord
  2
LINE_18
 70
     0
  3
________________________________
 72
    65
 73
     0
 40
0.0
  0
LTYPE
  5
62
330
5
100
AcDbSymbolTableRecord
100
AcDbLinetypeTableRecord
  2
Invisible
 70
     0
  3
________________________________
 72
    65
 73
     0
 40
0.0
  0
LTYPE
  5
63
330
5
100
AcDbSymbolTableRecord
100
AcDbLinetypeTableRecord
  2
LINE_19
 70
     0
  3
________________________________
 72
    65
 73
     0
 40
0.0
  0
LTYPE
  5
64
330
5
100
AcDbSymbolTableRecord
100
AcDbLinetypeTableRecord
  2
LINE_20
 70
     0
  3
________________________________
 72
    65
 73
     0
 40
0.0
  0
ENDTAB
  0
TABLE
  2
LAYER
  5
2
330
0
100
AcDbSymbolTable
 70
     4
  0
LAYER
  5
10
102
{ACAD_XDICTIONARY
360
481
102
}
330
2
100
AcDbSymbolTableRecord
100
AcDbLayerTableRecord
  2
0
 70
     0
 62
     7
  6
Continuous
370
    -3
390
47A
  0
LAYER
  5
66
102
{ACAD_XDICTIONARY
360
483
102
}
330
2
100
AcDbSymbolTableRecord
100
AcDbLayerTableRecord
  2
DEFAULT
 70
     0
 62
     1
  6
Continuous
370
    -3
390
47B
  0
LAYER
  5
69
102
{ACAD_XDICTIONARY
360
485
102
}
330
2
100
AcDbSymbolTableRecord
100
AcDbLayerTableRecord
  2
A
 70
     0
 62
     1
  6
Continuous
370
    -3
390
47B
  0
LAYER
  5
2E0
102
{ACAD_XDICTIONARY
360
487
102
}
330
2
100
AcDbSymbolTableRecord
100
AcDbLayerTableRecord
  2
B
 70
     0
 62
     1
  6
Continuous
370
    -3
390
47B
  0
ENDTAB
  0
TABLE
  2
STYLE
  5
3
330
0
100
AcDbSymbolTable
 70
     4
  0
STYLE
  5
11
330
3
100
AcDbSymbolTableRecord
100
AcDbTextStyleTableRecord
  2
Standard
 70
     0
 40
0.0
 41
1.0
 50
0.0
 71
     0
 42
0.2
  3
txt
  4

  0
STYLE
  5
D0
330
3
100
AcDbSymbolTableRecord
100
AcDbTextStyleTableRecord
  2
POLICE1
 70
     0
 40
2.738461541011929
 41
0.59375
 50
0.0
 71
     0
 42
0.5
  3
TXT
  4

1001
ACAD
1000
TXT
1071
        0
  0
STYLE
  5
2A5
330
3
100
AcDbSymbolTableRecord
100
AcDbTextStyleTableRecord
  2
Arial
 70
     0
 40
2.325
 41
0.9659999561309811
 50
0.0
 71
     0
 42
0.5
  3
ARIAL.TTF
  4

1001
ACAD
1000
Arial
1071
       34
  0
STYLE
  5
2E2
330
3
100
AcDbSymbolTableRecord
100
AcDbTextStyleTableRecord
  2
Arial_BOLD
 70
     0
 40
2.989285714285712
 41
1.207499945163725
 50
0.0
 71
     0
 42
0.5
  3
ARIALBD.TTF
  4

1001
ACAD
1000
Arial
1071
 33554466
  0
ENDTAB
  0
TABLE
  2
VIEW
  5
6
330
0
100
AcDbSymbolTable
 70
     1
  0
VIEW
  5
65
330
6
100
AcDbSymbolTableRecord
100
AcDbViewTableRecord
  2
VIEW
 70
     0
 40
1.0
 10
0.0
 20
0.0
 41
1.0
 11
0.0
 21
0.0
 31
1.0
 12
0.0
 22
0.0
 32
0.0
 42
50.0
 43
0.0
 44
0.0
 50
0.0
 71
     0
281
     0
 72
     0
  0
ENDTAB
  0
TABLE
  2
UCS
  5
7
330
0
100
AcDbSymbolTable
 70
     0
  0
ENDTAB
  0
TABLE
  2
APPID
  5
9
330
0
100
AcDbSymbolTable
 70
     2
  0
APPID
  5
12
330
9
100
AcDbSymbolTableRecord
100
AcDbRegAppTableRecord
  2
ACAD
 70
     0
  0
APPID
  5
479
330
9
100
AcDbSymbolTableRecord
100
AcDbRegAppTableRecord
  2
ACAD_MLEADERVER
 70
     0
  0
ENDTAB
  0
TABLE
  2
DIMSTYLE
  5
A
330
0
100
AcDbSymbolTable
 70
     1
100
AcDbDimStyleTable
 71
     0
  0
DIMSTYLE
105
27
330
A
100
AcDbSymbolTableRecord
100
AcDbDimStyleTableRecord
  2
Standard
 70
     0
340
11
  0
ENDTAB
  0
TABLE
  2
BLOCK_RECORD
  5
1
330
0
100
AcDbSymbolTable
 70
     3
  0
BLOCK_RECORD
  5
1F
102
{ACAD_XDICTIONARY
360
404
102
}
330
1
100
AcDbSymbolTableRecord
100
AcDbBlockTableRecord
  2
*Model_Space
340
22
  0
BLOCK_RECORD
  5
1B
102
{ACAD_XDICTIONARY
360
406
102
}
330
1
100
AcDbSymbolTableRecord
100
AcDbBlockTableRecord
  2
*Paper_Space
340
1E
  0
BLOCK_RECORD
  5
23
102
{ACAD_XDICTIONARY
360
408
102
}
330
1
100
AcDbSymbolTableRecord
100
AcDbBlockTableRecord
  2
*Paper_Space0
340
26
  0
BLOCK_RECORD
  5
67
330
1
100
AcDbSymbolTableRecord
100
AcDbBlockTableRecord
  2
1
340
0
102
{BLKREFS
331
2DE
102
}
  0
BLOCK_RECORD
  5
2FE
330
1
100
AcDbSymbolTableRecord
100
AcDbBlockTableRecord
  2
_FX_VARIATEUR_0_4_0
340
0
102
{BLKREFS
331
3AE
102
}
  0
ENDTAB
  0
ENDSEC
  0
SECTION
  2
BLOCKS
  0
BLOCK
  5
20
330
1F
100
AcDbEntity
  8
0
100
AcDbBlockBegin
  2
*Model_Space
 70
     0
 10
0.0
 20
0.0
 30
0.0
  3
*Model_Space
  1

  0
ENDBLK
  5
21
330
1F
100
AcDbEntity
  8
0
100
AcDbBlockEnd
  0
BLOCK
  5
1C
330
1B
100
AcDbEntity
 67
     1
  8
0
100
AcDbBlockBegin
  2
*Paper_Space
 70
     0
 10
0.0
 20
0.0
 30
0.0
  3
*Paper_Space
  1

  0
ENDBLK
  5
1D
330
1B
100
AcDbEntity
 67
     1
  8
0
100
AcDbBlockEnd
  0
BLOCK
  5
24
330
23
100
AcDbEntity
 67
     1
  8
0
100
AcDbBlockBegin
  2
*Paper_Space0
 70
     0
 10
0.0
 20
0.0
 30
0.0
  3
*Paper_Space0
  1

  0
ENDBLK
  5
25
330
23
100
AcDbEntity
 67
     1
  8
0
100
AcDbBlockEnd
  0
BLOCK
  5
2DC
330
67
100
AcDbEntity
  8
0
100
AcDbBlockBegin
  2
1
 70
     2
 10
0.0
 20
0.0
 30
0.0
  3
1
  1

  0
LINE
  5
68
330
67
100
AcDbEntity
  8
A
  6
Moyen
 62
     4
370
    25
100
AcDbLine
 10
0.0
 20
20.0
 30
0.0
 11
420.0
 21
20.0
 31
0.0
  0
LINE
  5
6A
330
67
100
AcDbEntity
  8
A
  6
Moyen
 62
     4
370
    25
100
AcDbLine
 10
275.0
 20
0.0
 30
0.0
 11
275.0
 21
20.0
 31
0.0
  0
LINE
  5
6B
330
67
100
AcDbEntity
  8
A
  6
Moyen
 62
     4
370
    25
100
AcDbLine
 10
395.0
 20
0.0
 30
0.0
 11
395.0
 21
20.0
 31
0.0
  0
LINE
  5
6C
330
67
100
AcDbEntity
  8
A
  6
Moyen
 62
     4
370
    25
100
AcDbLine
 10
275.0
 20
8.0
 30
0.0
 11
190.0
 21
8.0
 31
0.0
  0
LINE
  5
6D
330
67
100
AcDbEntity
  8
A
  6
Moyen
 62
     4
370
    25
100
AcDbLine
 10
70.0
 20
0.0
 30
0.0
 11
70.0
 21
20.0
 31
0.0
  0
LINE
  5
6E
330
67
100
AcDbEntity
  8
A
  6
Moyen
 62
     4
370
    25
100
AcDbLine
 10
70.0
 20
6.750000476837157
 30
0.0
 11
110.0
 21
6.750000476837157
 31
0.0
  0
LINE
  5
6F
330
67
100
AcDbEntity
  8
A
  6
Moyen
 62
     4
370
    25
100
AcDbLine
 10
110.0
 20
13.35000038146972
 30
0.0
 11
70.0
 21
13.35000038146972
 31
0.0
  0
LINE
  5
70
330
67
100
AcDbEntity
  8
A
  6
Moyen
 62
     4
370
    25
100
AcDbLine
 10
190.0
 20
20.0
 30
0.0
 11
190.0
 21
0.0
 31
0.0
  0
LINE
  5
71
330
67
100
AcDbEntity
  8
A
  6
Moyen
 62
     4
370
    25
100
AcDbLine
 10
110.0
 20
0.0
 30
0.0
 11
110.0
 21
20.0
 31
0.0
  0
LINE
  5
72
330
67
100
AcDbEntity
  8
A
  6
Moyen
 62
     4
370
    25
100
AcDbLine
 10
110.0
 20
16.0
 30
0.0
 11
190.0
 21
16.0
 31
0.0
  0
LINE
  5
73
330
67
100
AcDbEntity
  8
A
  6
Moyen
 62
     4
370
    25
100
AcDbLine
 10
110.0
 20
12.0
 30
0.0
 11
190.0
 21
12.0
 31
0.0
  0
LINE
  5
74
330
67
100
AcDbEntity
  8
A
  6
Moyen
 62
     4
370
    25
100
AcDbLine
 10
110.0
 20
8.0
 30
0.0
 11
190.0
 21
8.0
 31
0.0
  0
LINE
  5
75
330
67
100
AcDbEntity
  8
A
  6
Moyen
 62
     4
370
    25
100
AcDbLine
 10
110.0
 20
4.0
 30
0.0
 11
190.0
 21
4.0
 31
0.0
  0
LINE
  5
76
330
67
100
AcDbEntity
  8
A
  6
Moyen
 62
     4
370
    25
100
AcDbLine
 10
118.0
 20
0.0
 30
0.0
 11
118.0
 21
20.0
 31
0.0
  0
LINE
  5
77
330
67
100
AcDbEntity
  8
A
  6
Moyen
 62
     4
370
    25
100
AcDbLine
 10
132.0
 20
0.0
 30
0.0
 11
132.0
 21
20.0
 31
0.0
  0
LINE
  5
78
330
67
100
AcDbEntity
  8
A
  6
Moyen
 62
     4
370
    25
100
AcDbLine
 10
180.0
 20
0.0
 30
0.0
 11
180.0
 21
20.0
 31
0.0
  0
LWPOLYLINE
  5
79
330
67
100
AcDbEntity
  8
A
  6
Moyen
 62
     4
370
    25
100
AcDbPolyline
 90
        4
 70
     0
 43
0.0
 10
398.0
 20
6.0
 10
398.0
 20
8.0
 10
396.0
 20
7.0
 10
398.0
 20
6.0
  0
HATCH
  5
7F
330
67
100
AcDbEntity
  8
A
  6
Moyen
 62
     4
100
AcDbHatch
 10
0.0
 20
0.0
 30
0.0
210
0.0
220
0.0
230
1.0
  2
SOLID
 70
     1
 71
     0
 91
        1
 92
        0
 93
        3
 72
     1
 10
398.0
 20
6.0
 11
398.0
 21
8.0
 72
     1
 10
398.0
 20
8.0
 11
396.0
 21
7.0
 72
     1
 10
396.0
 20
7.0
 11
398.0
 21
6.0
 97
        0
 75
     0
 76
     1
 98
        0
  0
LWPOLYLINE
  5
80
330
67
100
AcDbEntity
  8
A
  6
Moyen
 62
     4
370
    25
100
AcDbPolyline
 90
        4
 70
     0
 43
0.0
 10
419.0
 20
7.0
 10
417.0
 20
8.0
 10
417.0
 20
6.0
 10
419.0
 20
7.0
  0
HATCH
  5
86
330
67
100
AcDbEntity
  8
A
  6
Moyen
 62
     4
100
AcDbHatch
 10
0.0
 20
0.0
 30
0.0
210
0.0
220
0.0
230
1.0
  2
SOLID
 70
     1
 71
     0
 91
        1
 92
        0
 93
        3
 72
     1
 10
419.0
 20
7.0
 11
417.0
 21
8.0
 72
     1
 10
417.0
 20
8.0
 11
417.0
 21
6.0
 72
     1
 10
417.0
 20
6.0
 11
419.0
 21
7.0
 97
        0
 75
     0
 76
     1
 98
        0
  0
LINE
  5
87
330
67
100
AcDbEntity
  8
A
  6
Moyen
 62
     4
370
    25
100
AcDbLine
 10
395.0
 20
4.0
 30
0.0
 11
420.0
 21
4.0
 31
0.0
  0
ATTDEF
  5
88
330
67
100
AcDbEntity
  8
A
  6
Fin
 62
     3
370
    15
100
AcDbText
 10
222.5
 20
3.005357142857143
 30
0.0
 40
2.989285714285712
  1

 41
1.207499945163725
 11
222.5
 21
4.5
 31
0.0
100
AcDbAttributeDefinition
  3

  2
$:11
 70
     0
 74
     2
  0
ATTDEF
  5
AB
330
67
100
AcDbEntity
  8
A
  6
Fin
 62
     2
370
    15
100
AcDbText
 10
232.5
 20
15.0
 30
0.0
 40
3.321428571428571
  1

 41
0.9659999561309811
 72
     4
 11
232.5
 21
15.0
 31
0.0
100
AcDbAttributeDefinition
  3

  2
$:10
 70
     0
 74
     2
  0
ATTDEF
  5
AC
330
67
100
AcDbEntity
  8
A
  6
Fin
 62
     2
370
    15
100
AcDbText
 10
335.0
 20
16.0
 30
0.0
 40
3.321428571428571
  1

 41
0.9659999561309811
 72
     4
 11
335.0
 21
16.0
 31
0.0
100
AcDbAttributeDefinition
  3

  2
$:09
 70
     0
 74
     2
  0
ATTDEF
  5
AD
330
67
100
AcDbEntity
  8
A
  6
Fin
 62
     7
370
    15
100
AcDbText
 10
335.0
 20
9.5
 30
0.0
 40
2.657142857142857
  1

 41
0.9659999561309811
 72
     4
 11
335.0
 21
9.5
 31
0.0
100
AcDbAttributeDefinition
  3

  2
$FOLTITRE
 70
     0
 74
     2
  0
ATTDEF
  5
AE
330
67
100
AcDbEntity
  8
A
  6
Fin
 62
     7
370
    15
100
AcDbText
 10
335.0
 20
5.0
 30
0.0
 40
2.657142857142857
  1

 41
0.9659999561309811
 72
     4
 11
335.0
 21
5.0
 31
0.0
100
AcDbAttributeDefinition
  3

  2
$FOLSSTITRE
 70
     0
 74
     2
  0
ATTDEF
  5
AF
330
67
100
AcDbEntity
  8
A
  6
Fin
 62
     4
370
    15
100
AcDbText
 10
407.5
 20
13.0
 30
0.0
 40
3.985714285714285
  1

 41
1.086749950647353
 72
     4
 11
407.5
 21
13.0
 31
0.0
100
AcDbAttributeDefinition
  3

  2
$FOLNUM
 70
     0
 74
     2
  0
ATTDEF
  5
B0
330
67
100
AcDbEntity
  8
A
  6
Fin
 62
     2
370
    15
100
AcDbText
 10
90.0
 20
16.5
 30
0.0
 40
1.99285714285714
  1

 41
0.9659999561309811
 72
     4
 11
90.0
 21
16.5
 31
0.0
100
AcDbAttributeDefinition
  3

  2
$:13
 70
     0
 74
     2
  0
ATTDEF
  5
B1
330
67
100
AcDbEntity
  8
A
  6
Fin
 62
     2
370
    15
100
AcDbText
 10
90.0
 20
9.75
 30
0.0
 40
1.99285714285714
  1

 41
0.9659999561309811
 72
     4
 11
90.0
 21
9.75
 31
0.0
100
AcDbAttributeDefinition
  3

  2
$:14
 70
     0
 74
     2
  0
ATTDEF
  5
B2
330
67
100
AcDbEntity
  8
A
  6
Fin
 62
     2
370
    15
100
AcDbText
 10
90.0
 20
1.723678571428571
 30
0.0
 40
2.052642857142857
  1

 41
0.9659999561309811
 72
     2
 11
90.0
 21
2.75
 31
0.0
100
AcDbAttributeDefinition
  3

  2
$:DATEAFFCREA
 70
     0
 74
     2
  0
ATTDEF
  5
B3
330
67
100
AcDbEntity
  8
A
  6
Fin
 62
     7
370
    15
100
AcDbText
 10
114.25
 20
6.5
 30
0.0
 40
1.660714285714284
  1

 41
0.9659999561309811
 72
     4
 11
114.25
 21
6.5
 31
0.0
100
AcDbAttributeDefinition
  3

  2
$REV_IND:X
 70
     0
 74
     2
  0
ATTDEF
  5
B4
330
67
100
AcDbEntity
  8
A
  6
Fin
 62
     7
370
    15
100
AcDbText
 10
114.25
 20
10.5
 30
0.0
 40
1.660714285714284
  1

 41
0.9659999561309811
 72
     4
 11
114.25
 21
10.5
 31
0.0
100
AcDbAttributeDefinition
  3

  2
$REV_IND:X+1
 70
     0
 74
     2
  0
ATTDEF
  5
B5
330
67
100
AcDbEntity
  8
A
  6
Fin
 62
     7
370
    15
100
AcDbText
 10
114.25
 20
14.5
 30
0.0
 40
1.660714285714284
  1

 41
0.9659999561309811
 72
     4
 11
114.25
 21
14.5
 31
0.0
100
AcDbAttributeDefinition
  3

  2
$REV_IND:X+2
 70
     0
 74
     2
  0
ATTDEF
  5
B6
330
67
100
AcDbEntity
  8
A
  6
Fin
 62
     7
370
    15
100
AcDbText
 10
114.25
 20
18.5
 30
0.0
 40
1.660714285714284
  1

 41
0.9659999561309811
 72
     4
 11
114.25
 21
18.5
 31
0.0
100
AcDbAttributeDefinition
  3

  2
$REV_IND:X+3
 70
     0
 74
     2
  0
ATTDEF
  5
B7
330
67
100
AcDbEntity
  8
A
  6
Fin
 62
     7
370
    15
100
AcDbText
 10
125.25
 20
6.5
 30
0.0
 40
1.660714285714284
  1

 41
0.9659999561309811
 72
     4
 11
125.25
 21
6.5
 31
0.0
100
AcDbAttributeDefinition
  3

  2
$REV_DATE:X
 70
     0
 74
     2
  0
ATTDEF
  5
B8
330
67
100
AcDbEntity
  8
A
  6
Fin
 62
     7
370
    15
100
AcDbText
 10
125.25
 20
10.5
 30
0.0
 40
1.660714285714284
  1

 41
0.9659999561309811
 72
     4
 11
125.25
 21
10.5
 31
0.0
100
AcDbAttributeDefinition
  3

  2
$REV_DATE:X+1
 70
     0
 74
     2
  0
ATTDEF
  5
B9
330
67
100
AcDbEntity
  8
A
  6
Fin
 62
     7
370
    15
100
AcDbText
 10
125.25
 20
14.5
 30
0.0
 40
1.660714285714284
  1

 41
0.9659999561309811
 72
     4
 11
125.25
 21
14.5
 31
0.0
100
AcDbAttributeDefinition
  3

  2
$REV_DATE:X+2
 70
     0
 74
     2
  0
ATTDEF
  5
BA
330
67
100
AcDbEntity
  8
A
  6
Fin
 62
     7
370
    15
100
AcDbText
 10
125.25
 20
18.5
 30
0.0
 40
1.660714285714284
  1

 41
0.9659999561309811
 72
     4
 11
125.25
 21
18.5
 31
0.0
100
AcDbAttributeDefinition
  3

  2
$REV_DATE:X+3
 70
     0
 74
     2
  0
ATTDEF
  5
BB
330
67
100
AcDbEntity
  8
A
  6
Fin
 62
     7
370
    15
100
AcDbText
 10
134.0
 20
5.669642857142857
 30
0.0
 40
1.660714285714284
  1

 41
0.9659999561309811
 11
134.0
 21
6.5
 31
0.0
100
AcDbAttributeDefinition
  3

  2
$REV_LIB:X
 70
     0
 74
     2
  0
ATTDEF
  5
BC
330
67
100
AcDbEntity
  8
A
  6
Fin
 62
     7
370
    15
100
AcDbText
 10
134.0
 20
9.669642857142857
 30
0.0
 40
1.660714285714284
  1

 41
0.9659999561309811
 11
134.0
 21
10.5
 31
0.0
100
AcDbAttributeDefinition
  3

  2
$REV_LIB:X+1
 70
     0
 74
     2
  0
ATTDEF
  5
BD
330
67
100
AcDbEntity
  8
A
  6
Fin
 62
     7
370
    15
100
AcDbText
 10
134.0
 20
13.66964285714286
 30
0.0
 40
1.660714285714284
  1

 41
0.9659999561309811
 11
134.0
 21
14.5
 31
0.0
100
AcDbAttributeDefinition
  3

  2
$REV_LIB:X+2
 70
     0
 74
     2
  0
ATTDEF
  5
BE
330
67
100
AcDbEntity
  8
A
  6
Fin
 62
     7
370
    15
100
AcDbText
 10
134.0
 20
17.66964285714285
 30
0.0
 40
1.660714285714284
  1

 41
0.9659999561309811
 11
134.0
 21
18.5
 31
0.0
100
AcDbAttributeDefinition
  3

  2
$REV_LIB:X+3
 70
     0
 74
     2
  0
ATTDEF
  5
BF
330
67
100
AcDbEntity
  8
A
  6
Fin
 62
     7
370
    15
100
AcDbText
 10
185.0
 20
6.5
 30
0.0
 40
1.660714285714284
  1

 41
0.9659999561309811
 72
     4
 11
185.0
 21
6.5
 31
0.0
100
AcDbAttributeDefinition
  3

  2
$REV_NOM:X
 70
     0
 74
     2
  0
ATTDEF
  5
C0
330
67
100
AcDbEntity
  8
A
  6
Fin
 62
     7
370
    15
100
AcDbText
 10
185.0
 20
10.5
 30
0.0
 40
1.660714285714284
  1

 41
0.9659999561309811
 72
     4
 11
185.0
 21
10.5
 31
0.0
100
AcDbAttributeDefinition
  3

  2
$REV_NOM:X+1
 70
     0
 74
     2
  0
ATTDEF
  5
C1
330
67
100
AcDbEntity
  8
A
  6
Fin
 62
     7
370
    15
100
AcDbText
 10
185.0
 20
14.5
 30
0.0
 40
1.660714285714284
  1

 41
0.9659999561309811
 72
     4
 11
185.0
 21
14.5
 31
0.0
100
AcDbAttributeDefinition
  3

  2
$REV_NOM:X+2
 70
     0
 74
     2
  0
ATTDEF
  5
C2
330
67
100
AcDbEntity
  8
A
  6
Fin
 62
     7
370
    15
100
AcDbText
 10
185.0
 20
18.5
 30
0.0
 40
1.660714285714284
  1

 41
0.9659999561309811
 72
     4
 11
185.0
 21
18.5
 31
0.0
100
AcDbAttributeDefinition
  3

  2
$REV_NOM:X+3
 70
     0
 74
     2
  0
ATTDEF
  5
C3
330
67
100
AcDbEntity
  8
A
  6
Fin
 62
     4
370
    15
100
AcDbText
 10
414.25
 20
1.386428571428571
 30
0.0
 40
1.727142857142857
  1

 41
0.9659999561309811
 11
414.25
 21
2.25
 31
0.0
100
AcDbAttributeDefinition
  3

  2
$VERSION
 70
     0
 74
     2
  0
ATTDEF
  5
C4
330
67
100
AcDbEntity
  8
A
  6
Fin
 62
     4
370
    15
100
AcDbText
 10
400.0
 20
6.171428571428571
 30
0.0
 40
2.657142857142857
  1

 41
0.9659999561309811
 11
400.0
 21
7.5
 31
0.0
100
AcDbAttributeDefinition
  3

  2
$FOLIO_PREC
 70
     0
 74
     2
  0
ATTDEF
  5
C5
330
67
100
AcDbEntity
  8
A
  6
Fin
 62
     4
370
    15
100
AcDbText
 10
415.0
 20
6.171428571428571
 30
0.0
 40
2.657142857142857
  1

 41
0.9659999561309811
 72
     2
 11
415.0
 21
7.5
 31
0.0
100
AcDbAttributeDefinition
  3

  2
$FOLIO_SUIV
 70
     0
 74
     2
  0
ATTDEF
  5
C6
330
67
100
AcDbEntity
  8
A
  6
Fin
 62
     7
370
    15
100
AcDbText
 10
5.0
 20
26.50535714285715
 30
0.0
 40
2.989285714285712
  1

 41
0.9659999561309811
 11
5.0
 21
28.0
 31
0.0
100
AcDbAttributeDefinition
  3

  2
$FONCTION
 70
     0
 74
     2
  0
ATTDEF
  5
C7
330
67
100
AcDbEntity
  8
A
  6
Fin
 62
     7
370
    15
100
AcDbText
 10
5.0
 20
22.00535714285714
 30
0.0
 40
2.989285714285712
  1

 41
0.9659999561309811
 11
5.0
 21
23.5
 31
0.0
100
AcDbAttributeDefinition
  3

  2
$LOCALISATION
 70
     0
 74
     2
  0
LINE
  5
C8
330
67
100
AcDbEntity
  8
A
  6
Fin
 62
     7
370
    15
100
AcDbLine
 10
37.18277740478516
 20
19.53468894958496
 30
0.0
 11
37.30900192260742
 21
19.53468894958496
 31
0.0
  0
LINE
  5
C9
330
67
100
AcDbEntity
  8
A
  6
Fin
 62
     7
370
    15
100
AcDbLine
 10
37.18277740478516
 20
19.53468894958496
 30
0.0
 11
37.18277740478516
 21
19.28224372863769
 31
0.0
  0
LINE
  5
CA
330
67
100
AcDbEntity
  8
A
  6
Fin
 62
     7
370
    15
100
AcDbLine
 10
37.18277740478516
 20
19.28224372863769
 30
0.0
 11
37.18277740478516
 21
19.28224372863769
 31
0.0
  0
LINE
  5
CB
330
67
100
AcDbEntity
  8
A
  6
Fin
 62
     7
370
    15
100
AcDbLine
 10
37.18277740478516
 20
19.28224372863769
 30
0.0
 11
37.18277740478516
 21
19.02980041503906
 31
0.0
  0
LINE
  5
CC
330
67
100
AcDbEntity
  8
A
  6
Fin
 62
     7
370
    15
100
AcDbLine
 10
37.18277740478516
 20
19.28224372863769
 30
0.0
 11
37.30900192260742
 21
19.28224372863769
 31
0.0
  0
ARC
  5
CD
330
67
100
AcDbEntity
  8
A
  6
Fin
 62
     7
370
    15
100
AcDbCircle
 10
37.30900192260742
 20
19.40846633911133
 30
0.0
 40
0.1262226104736328
100
AcDbArc
 50
270.0
 51
90.0
  0
LINE
  5
CE
330
67
100
AcDbEntity
  8
A
  6
Fin
 62
     7
370
    15
100
AcDbLine
 10
37.30900192260742
 20
19.28224372863769
 30
0.0
 11
37.44986724853516
 21
19.03825569152832
 31
0.0
  0
CIRCLE
  5
CF
330
67
100
AcDbEntity
  8
A
  6
Fin
 62
     7
370
    15
100
AcDbCircle
 10
37.30900192260742
 20
19.28224372863769
 30
0.0
 40
0.2822418212890625
  0
TEXT
  5
D1
330
67
100
AcDbEntity
  8
A
  6
Fin
 62
     7
370
    15
100
AcDbText
 10
5.478717803955078
 20
2.951361179351806
 30
0.0
 40
2.738461541011929
  1
ANGOULEME FRANCE
 41
0.59375
  7
POLICE1
100
AcDbText
  0
LWPOLYLINE
  5
D2
330
67
100
AcDbEntity
  8
A
  6
Fin
 62
     7
370
    15
100
AcDbPolyline
 90
        2
 70
     0
 43
0.0
 10
2.40533447265625
 20
8.063796997070312
 10
14.37387084960937
 20
8.063796997070312
  0
LWPOLYLINE
  5
D6
330
67
100
AcDbEntity
  8
A
  6
Fin
 62
     7
370
    15
100
AcDbPolyline
 90
        2
 70
     0
 43
0.0
 10
6.61016845703125
 20
11.62205505371094
 10
11.46298217773437
 20
11.62205505371094
  0
LWPOLYLINE
  5
DA
330
67
100
AcDbEntity
  8
A
  6
Fin
 62
     7
370
    15
100
AcDbPolyline
 90
        2
 70
     0
 43
0.0
 10
8.551090240478513
 20
15.1805191040039
 10
11.46298217773437
 20
11.62205505371094
  0
LWPOLYLINE
  5
DE
330
67
100
AcDbEntity
  8
A
  6
Fin
 62
     7
370
    15
100
AcDbPolyline
 90
        2
 70
     0
 43
0.0
 10
17.60874557495117
 20
10.3281021118164
 10
17.28576278686523
 20
10.65169525146484
  0
LWPOLYLINE
  5
E2
330
67
100
AcDbEntity
  8
A
  6
Fin
 62
     7
370
    15
100
AcDbPolyline
 90
       35
 70
     0
 43
0.0
 10
18.74120330810547
 20
12.43082427978515
 10
18.63501739501953
 20
12.50799560546875
 10
18.5207290649414
 20
12.57256317138672
 10
18.39982604980469
 20
12.62367248535156
 10
18.27387619018555
 20
12.66066741943359
 10
18.14453506469726
 20
12.68305206298828
 10
18.01348114013672
 20
12.6905517578125
 10
18.01348114013672
 20
12.6905517578125
 10
17.90082550048828
 20
12.68502044677734
 10
17.78925323486328
 20
12.66847229003906
 10
17.67984008789062
 20
12.64106750488281
 10
17.57364273071289
 20
12.60306549072266
 10
17.4716796875
 20
12.55484008789062
 10
17.37493515014648
 20
12.49684906005859
 10
17.28433609008789
 20
12.4296646118164
 10
17.20076370239258
 20
12.35391998291015
 10
17.12501907348633
 20
12.27034759521484
 10
17.05782318115234
 20
12.17974853515625
 10
16.99983596801757
 20
12.0830078125
 10
16.95161437988281
 20
11.98104095458984
 10
16.91361236572265
 20
11.87483978271484
 10
16.8862075805664
 20
11.76543426513672
 10
16.86965942382812
 20
11.65385437011718
 10
16.8641242980957
 20
11.54119873046875
 10
16.8641242980957
 20
11.54119873046875
 10
16.86967849731445
 20
11.42833709716797
 10
16.88628768920898
 20
11.31657409667969
 10
16.91379165649414
 20
11.20697784423828
 10
16.95192718505859
 20
11.10060882568359
 10
17.00032424926758
 20
10.99850463867187
 10
17.05850982666015
 20
10.90164184570312
 10
17.12592697143555
 20
10.81095123291015
 10
17.20192337036133
 20
10.72733306884765
 10
17.28576278686523
 20
10.65158081054687
 10
17.28576278686523
 20
10.65158081054687
  0
LWPOLYLINE
  5
107
330
67
100
AcDbEntity
  8
A
  6
Fin
 62
     7
370
    15
100
AcDbPolyline
 90
        2
 70
     0
 43
0.0
 10
12.10995864868164
 20
15.1805191040039
 10
15.66781616210937
 20
15.1805191040039
  0
LWPOLYLINE
  5
10B
330
67
100
AcDbEntity
  8
A
  6
Fin
 62
     7
370
    15
100
AcDbPolyline
 90
        2
 70
     0
 43
0.0
 10
15.02084350585937
 20
11.62205505371094
 10
12.10995864868164
 20
15.1805191040039
  0
LWPOLYLINE
  5
10F
330
67
100
AcDbEntity
  8
A
  6
Fin
 62
     7
370
    15
100
AcDbPolyline
 90
        2
 70
     0
 43
0.0
 10
18.5797119140625
 20
14.20995330810547
 10
18.90269470214844
 20
14.20995330810547
  0
LWPOLYLINE
  5
113
330
67
100
AcDbEntity
  8
A
  6
Fin
 62
     7
370
    15
100
AcDbPolyline
 90
        2
 70
     0
 43
0.0
 10
16.80027770996094
 20
14.20995330810547
 10
18.5797119140625
 20
14.20995330810547
  0
LWPOLYLINE
  5
117
330
67
100
AcDbEntity
  8
A
  6
Fin
 62
     7
370
    15
100
AcDbPolyline
 90
        2
 70
     0
 43
0.0
 10
4.669240951538085
 20
18.73877716064453
 10
7.904117584228512
 20
18.73877716064453
  0
LWPOLYLINE
  5
11B
330
67
100
AcDbEntity
  8
A
  6
Fin
 62
     7
370
    15
100
AcDbPolyline
 90
        2
 70
     0
 43
0.0
 10
9.198066711425779
 20
18.73877716064453
 10
8.551090240478513
 20
15.1805191040039
  0
LWPOLYLINE
  5
11F
330
67
100
AcDbEntity
  8
A
  6
Fin
 62
     7
370
    15
100
AcDbPolyline
 90
        2
 70
     0
 43
0.0
 10
7.904117584228512
 20
18.73877716064453
 10
6.61016845703125
 20
11.62205505371094
  0
LWPOLYLINE
  5
123
330
67
100
AcDbEntity
  8
A
  6
Fin
 62
     7
370
    15
100
AcDbPolyline
 90
        2
 70
     0
 43
0.0
 10
9.198066711425779
 20
18.73877716064453
 10
16.31479263305664
 20
18.73877716064453
  0
LWPOLYLINE
  5
127
330
67
100
AcDbEntity
  8
A
  6
Fin
 62
     7
370
    15
100
AcDbPolyline
 90
        2
 70
     0
 43
0.0
 10
17.60874557495117
 20
18.73877716064453
 10
16.80027770996094
 20
14.20995330810547
  0
LWPOLYLINE
  5
12B
330
67
100
AcDbEntity
  8
A
  6
Fin
 62
     7
370
    15
100
AcDbPolyline
 90
        2
 70
     0
 43
0.0
 10
16.31479263305664
 20
18.73877716064453
 10
15.66781616210937
 20
15.1805191040039
  0
LWPOLYLINE
  5
12F
330
67
100
AcDbEntity
  8
A
  6
Fin
 62
     7
370
    15
100
AcDbPolyline
 90
        2
 70
     0
 43
0.0
 10
15.02084350585937
 20
11.62205505371094
 10
14.37387084960937
 20
8.063796997070312
  0
LWPOLYLINE
  5
133
330
67
100
AcDbEntity
  8
A
  6
Fin
 62
     7
370
    15
100
AcDbPolyline
 90
       39
 70
     0
 43
0.0
 10
15.9918098449707
 20
8.387176513671875
 10
16.08702850341797
 20
8.287986755371091
 10
16.19234085083007
 20
8.199577331542966
 10
16.30652236938476
 20
8.122970581054687
 10
16.42825698852539
 20
8.059051513671875
 10
16.55614852905273
 20
8.008560180664062
 10
16.688720703125
 20
7.972068786621092
 10
16.82443618774414
 20
7.949996948242187
 10
16.96173858642578
 20
7.942619323730467
 10
16.96173858642578
 20
7.942619323730467
 10
17.07987594604492
 20
7.948081970214842
 10
17.19700241088867
 20
7.96441650390625
 10
17.3121223449707
 20
7.991493225097656
 10
17.42425918579101
 20
8.029075622558591
 10
17.53244400024414
 20
8.076850891113281
 10
17.63576126098633
 20
8.134391784667966
 10
17.73332977294922
 20
8.201225280761716
 10
17.82431411743164
 20
8.276779174804687
 10
17.9079360961914
 20
8.360404968261716
 10
17.98348999023437
 20
8.451393127441406
 10
18.05032730102539
 20
8.548957824707031
 10
18.10787200927734
 20
8.652275085449216
 10
18.15564346313476
 20
8.760459899902341
 10
18.1932258605957
 20
8.872589111328125
 10
18.22030258178711
 20
8.987709045410156
 10
18.23664093017578
 20
9.104843139648435
 10
18.24210357666015
 20
9.222976684570312
 10
18.24210357666015
 20
9.222976684570312
 10
18.23516464233398
 20
9.3560791015625
 10
18.21443176269531
 20
9.487739562988279
 10
18.18012237548828
 20
9.616523742675779
 10
18.13260650634765
 20
9.741050720214843
 10
18.07240676879883
 20
9.859962463378906
 10
18.00016784667969
 20
9.971969604492187
 10
17.91668319702148
 20
10.07585906982422
 10
17.82284927368164
 20
10.1705093383789
 10
17.71968078613281
 20
10.25489044189453
 10
17.60830307006836
 20
10.32809448242187
 10
17.60830307006836
 20
10.32809448242187
  0
LWPOLYLINE
  5
15C
330
67
100
AcDbEntity
  8
A
  6
Fin
 62
     7
370
    15
100
AcDbPolyline
 90
        2
 70
     0
 43
0.0
 10
2.40533447265625
 20
8.063796997070312
 10
4.669240951538085
 20
18.73877716064453
  0
LWPOLYLINE
  5
160
330
67
100
AcDbEntity
  8
A
  6
Fin
 62
     7
370
    15
100
AcDbPolyline
 90
        2
 70
     0
 43
0.0
 10
30.87223815917969
 20
8.063796997070312
 10
32.81316375732422
 20
8.063796997070312
  0
LWPOLYLINE
  5
164
330
67
100
AcDbEntity
  8
A
  6
Fin
 62
     7
370
    15
100
AcDbPolyline
 90
        2
 70
     0
 43
0.0
 10
20.35813522338867
 20
16.63616180419922
 10
21.49059677124023
 20
16.63616180419922
  0
LWPOLYLINE
  5
168
330
67
100
AcDbEntity
  8
A
  6
Fin
 62
     7
370
    15
100
AcDbPolyline
 90
        2
 70
     0
 43
0.0
 10
24.40248870849611
 20
16.63616180419922
 10
24.72546768188477
 20
16.63616180419922
  0
LWPOLYLINE
  5
16C
330
67
100
AcDbEntity
  8
A
  6
Fin
 62
     7
370
    15
100
AcDbPolyline
 90
        2
 70
     0
 43
0.0
 10
24.239990234375
 20
16.63616180419922
 10
25.37244415283203
 20
14.20995330810547
  0
LWPOLYLINE
  5
170
330
67
100
AcDbEntity
  8
A
  6
Fin
 62
     7
370
    15
100
AcDbPolyline
 90
        2
 70
     0
 43
0.0
 10
23.4315185546875
 20
16.63616180419922
 10
24.40248870849611
 20
16.63616180419922
  0
LWPOLYLINE
  5
174
330
67
100
AcDbEntity
  8
A
  6
Fin
 62
     7
370
    15
100
AcDbPolyline
 90
        2
 70
     0
 43
0.0
 10
35.56255340576172
 20
10.48989868164062
 10
35.88553619384766
 20
10.48989868164062
  0
LWPOLYLINE
  5
178
330
67
100
AcDbEntity
  8
A
  6
Fin
 62
     7
370
    15
100
AcDbPolyline
 90
        2
 70
     0
 43
0.0
 10
34.59158706665039
 20
10.48989868164062
 10
35.56255340576172
 20
10.48989868164062
  0
LWPOLYLINE
  5
17C
330
67
100
AcDbEntity
  8
A
  6
Fin
 62
     7
370
    15
100
AcDbPolyline
 90
        2
 70
     0
 43
0.0
 10
34.91558074951172
 20
12.59262084960937
 10
36.04803466796875
 20
12.59262084960937
  0
LWPOLYLINE
  5
180
330
67
100
AcDbEntity
  8
A
  6
Fin
 62
     7
370
    15
100
AcDbPolyline
 90
        2
 70
     0
 43
0.0
 10
31.35772323608398
 20
10.48989868164062
 10
32.48917388916016
 20
10.48989868164062
  0
LWPOLYLINE
  5
184
330
67
100
AcDbEntity
  8
A
  6
Fin
 62
     7
370
    15
100
AcDbPolyline
 90
        2
 70
     0
 43
0.0
 10
31.84220123291016
 20
12.59262084960937
 10
33.46014022827148
 20
12.59262084960937
  0
LWPOLYLINE
  5
188
330
67
100
AcDbEntity
  8
A
  6
Fin
 62
     7
370
    15
100
AcDbPolyline
 90
        2
 70
     0
 43
0.0
 10
31.68070983886719
 20
12.59262084960937
 10
33.46014022827148
 20
12.59262084960937
  0
LWPOLYLINE
  5
18C
330
67
100
AcDbEntity
  8
A
  6
Fin
 62
     7
370
    15
100
AcDbPolyline
 90
        2
 70
     0
 43
0.0
 10
32.48917388916016
 20
16.79785919189453
 10
32.16619110107422
 20
14.20995330810547
  0
LWPOLYLINE
  5
190
330
67
100
AcDbEntity
  8
A
  6
Fin
 62
     7
370
    15
100
AcDbPolyline
 90
       35
 70
     0
 43
0.0
 10
26.34341049194336
 20
16.47447204589844
 10
26.35431671142578
 20
16.25257110595702
 10
26.38692474365234
 20
16.0328140258789
 10
26.4409065246582
 20
15.81730651855469
 10
26.51575469970703
 20
15.60812377929687
 10
26.61075210571289
 20
15.40728759765625
 10
26.7249641418457
 20
15.21673583984375
 10
26.85731506347656
 20
15.03828430175781
 10
27.00651168823242
 20
14.87367248535156
 10
27.1711311340332
 20
14.7244873046875
 10
27.34957504272461
 20
14.5921401977539
 10
27.54013442993164
 20
14.47792816162109
 10
27.74097442626953
 20
14.3829345703125
 10
27.95014953613281
 20
14.30809020996093
 10
28.16565704345703
 20
14.25411224365234
 10
28.38541793823242
 20
14.22151947021484
 10
28.60731506347656
 20
14.21060943603515
 10
28.60731506347656
 20
14.21060943603515
 10
28.8292121887207
 20
14.22151947021484
 10
29.04898452758789
 20
14.25411224365234
 10
29.26448822021484
 20
14.30809020996093
 10
29.47367095947266
 20
14.3829345703125
 10
29.67450332641602
 20
14.47792816162109
 10
29.86505889892578
 20
14.5921401977539
 10
30.04351043701172
 20
14.72447967529297
 10
30.20812225341797
 20
14.87367248535156
 10
30.35733032226563
 20
15.03828430175781
 10
30.48966979980469
 20
15.21672821044922
 10
30.6038932800293
 20
15.40728759765625
 10
30.69887924194336
 20
15.60812377929687
 10
30.77373123168945
 20
15.81729888916015
 10
30.82772064208985
 20
16.03280639648437
 10
30.86032104492188
 20
16.2525634765625
 10
30.8712272644043
 20
16.4744644165039
 10
30.8712272644043
 20
16.4744644165039
  0
LWPOLYLINE
  5
1B5
330
67
100
AcDbEntity
  8
A
  6
Fin
 62
     7
370
    15
100
AcDbPolyline
 90
        2
 70
     0
 43
0.0
 10
20.68213272094727
 20
18.73877716064453
 10
22.46156311035156
 20
18.73877716064453
  0
LWPOLYLINE
  5
1B9
330
67
100
AcDbEntity
  8
A
  6
Fin
 62
     7
370
    15
100
AcDbPolyline
 90
        2
 70
     0
 43
0.0
 10
23.75551605224609
 20
18.73877716064453
 10
24.88796615600586
 20
18.73877716064453
  0
LWPOLYLINE
  5
1BD
330
67
100
AcDbEntity
  8
A
  6
Fin
 62
     7
370
    15
100
AcDbPolyline
 90
        2
 70
     0
 43
0.0
 10
23.75551605224609
 20
18.73877716064453
 10
22.94603729248047
 20
14.20995330810547
  0
LWPOLYLINE
  5
1C1
330
67
100
AcDbEntity
  8
A
  6
Fin
 62
     7
370
    15
100
AcDbPolyline
 90
       32
 70
     0
 43
0.0
 10
24.72546768188477
 20
16.63616180419922
 10
24.8299560546875
 20
16.65084075927734
 10
24.93247985839844
 20
16.67573547363281
 10
25.03205108642578
 20
16.71060943603515
 10
25.12770462036133
 20
16.75513458251953
 10
25.218505859375
 20
16.80887603759765
 10
25.30356597900391
 20
16.87129211425781
 10
25.38206100463867
 20
16.94179534912109
 10
25.45322799682617
 20
17.01968383789062
 10
25.51637268066406
 20
17.10420989990234
 10
25.57088088989258
 20
17.19454956054687
 10
25.61622619628906
 20
17.28982543945312
 10
25.65195083618164
 20
17.38909149169922
 10
25.67772293090822
 20
17.49140930175781
 10
25.69328689575197
 20
17.59575653076172
 10
25.69849014282227
 20
17.70114135742187
 10
25.69849014282227
 20
17.70114135742187
 10
25.69369506835938
 20
17.80227661132812
 10
25.67935943603516
 20
17.90251159667969
 10
25.65560531616211
 20
18.00093078613281
 10
25.62265396118164
 20
18.09667205810547
 10
25.58078384399414
 20
18.18886566162109
 10
25.5303955078125
 20
18.27667999267578
 10
25.47191619873047
 20
18.35933685302734
 10
25.4058837890625
 20
18.43609619140625
 10
25.33287811279297
 20
18.50627136230469
 10
25.25357818603516
 20
18.5692138671875
 10
25.16866683959961
 20
18.62438201904297
 10
25.07893371582031
 20
18.67127227783203
 10
24.98515701293945
 20
18.70945739746094
 10
24.88819122314453
 20
18.73860931396484
 10
24.88819122314453
 20
18.73860931396484
  0
LWPOLYLINE
  5
1E3
330
67
100
AcDbEntity
  8
A
  6
Fin
 62
     7
370
    15
100
AcDbPolyline
 90
        2
 70
     0
 43
0.0
 10
32.48917388916016
 20
16.79785919189453
 10
34.10711288452148
 20
18.73877716064453
  0
LWPOLYLINE
  5
1E7
330
67
100
AcDbEntity
  8
A
  6
Fin
 62
     7
370
    15
100
AcDbPolyline
 90
        2
 70
     0
 43
0.0
 10
31.19521713256836
 20
18.73877716064453
 10
32.48917388916016
 20
16.79785919189453
  0
LWPOLYLINE
  5
1EB
330
67
100
AcDbEntity
  8
A
  6
Fin
 62
     7
370
    15
100
AcDbPolyline
 90
       35
 70
     0
 43
0.0
 10
30.87223815917969
 20
16.47447204589844
 10
30.861328125
 20
16.69647216796875
 10
30.82871627807617
 20
16.91632843017577
 10
30.77470779418945
 20
17.13194274902344
 10
30.69983291625977
 20
17.34121704101562
 10
30.60479736328125
 20
17.54213714599609
 10
30.49053192138672
 20
17.7327880859375
 10
30.35812377929687
 20
17.91131591796875
 10
30.20885848999024
 20
18.07599639892578
 10
30.04417037963867
 20
18.22526550292969
 10
29.86564254760742
 20
18.35767364501953
 10
29.67499160766602
 20
18.47193908691406
 10
29.47406768798828
 20
18.56697082519531
 10
29.26479339599609
 20
18.641845703125
 10
29.0491828918457
 20
18.69586181640625
 10
28.82932281494141
 20
18.72847747802734
 10
28.60731506347656
 20
18.7393798828125
 10
28.60731506347656
 20
18.7393798828125
 10
28.38531875610352
 20
18.72847747802734
 10
28.16545486450195
 20
18.69586181640625
 10
27.94984817504883
 20
18.641845703125
 10
27.74057769775391
 20
18.56697082519531
 10
27.53964614868164
 20
18.47194671630859
 10
27.34900665283203
 20
18.35767364501953
 10
27.17047500610352
 20
18.22526550292969
 10
27.00579071044922
 20
18.07600402832031
 10
26.85652542114258
 20
17.91131591796875
 10
26.72411346435547
 20
17.7327880859375
 10
26.60984420776367
 20
17.54214477539062
 10
26.51481246948242
 20
17.34121704101562
 10
26.4399299621582
 20
17.13194274902344
 10
26.38592147827149
 20
16.91633605957031
 10
26.35330963134766
 20
16.69647216796875
 10
26.34240341186524
 20
16.47447967529297
 10
26.34240341186524
 20
16.47447967529297
  0
LWPOLYLINE
  5
210
330
67
100
AcDbEntity
  8
A
  6
Fin
 62
     7
370
    15
100
AcDbPolyline
 90
        2
 70
     0
 43
0.0
 10
25.37244415283203
 20
12.59262084960937
 10
24.72546768188477
 20
8.063796997070312
  0
LWPOLYLINE
  5
214
330
67
100
AcDbEntity
  8
A
  6
Fin
 62
     7
370
    15
100
AcDbPolyline
 90
        2
 70
     0
 43
0.0
 10
27.31336975097657
 20
8.063796997070312
 10
25.37244415283203
 20
12.59262084960937
  0
LWPOLYLINE
  5
218
330
67
100
AcDbEntity
  8
A
  6
Fin
 62
     7
370
    15
100
AcDbPolyline
 90
        2
 70
     0
 43
0.0
 10
29.2542953491211
 20
12.59262084960937
 10
29.57828521728515
 20
8.063796997070312
  0
LWPOLYLINE
  5
21C
330
67
100
AcDbEntity
  8
A
  6
Fin
 62
     7
370
    15
100
AcDbPolyline
 90
        2
 70
     0
 43
0.0
 10
31.68070983886719
 20
12.59262084960937
 10
30.87223815917969
 20
8.063796997070312
  0
LWPOLYLINE
  5
220
330
67
100
AcDbEntity
  8
A
  6
Fin
 62
     7
370
    15
100
AcDbPolyline
 90
        2
 70
     0
 43
0.0
 10
35.40106201171875
 20
10.48989868164062
 10
36.53352737426758
 20
8.063796997070312
  0
LWPOLYLINE
  5
224
330
67
100
AcDbEntity
  8
A
  6
Fin
 62
     7
370
    15
100
AcDbPolyline
 90
        2
 70
     0
 43
0.0
 10
34.91558074951172
 20
12.59262084960937
 10
34.10711288452148
 20
8.063796997070312
  0
LWPOLYLINE
  5
228
330
67
100
AcDbEntity
  8
A
  6
Fin
 62
     7
370
    15
100
AcDbPolyline
 90
        2
 70
     0
 43
0.0
 10
27.31336975097657
 20
8.063796997070312
 10
29.2542953491211
 20
12.59262084960937
  0
LWPOLYLINE
  5
22C
330
67
100
AcDbEntity
  8
A
  6
Fin
 62
     7
370
    15
100
AcDbPolyline
 90
       32
 70
     0
 43
0.0
 10
35.88553619384766
 20
10.48989868164062
 10
35.99002075195314
 20
10.50457000732422
 10
36.09255599975586
 20
10.52946472167969
 10
36.1921272277832
 20
10.56434631347656
 10
36.28778076171875
 20
10.60887145996094
 10
36.37858581542969
 20
10.66259765625
 10
36.46365356445314
 20
10.72502136230468
 10
36.54215240478516
 20
10.79551696777343
 10
36.61331939697266
 20
10.8734130859375
 10
36.67646026611328
 20
10.95793914794922
 10
36.73097229003906
 20
11.04827880859375
 10
36.77631378173828
 20
11.14354705810547
 10
36.81204605102539
 20
11.24282073974609
 10
36.83782196044922
 20
11.34513092041015
 10
36.8533821105957
 20
11.44948577880859
 10
36.85858917236328
 20
11.55487060546875
 10
36.85858917236328
 20
11.55487060546875
 10
36.85379409790039
 20
11.656005859375
 10
36.83945846557617
 20
11.75623321533203
 10
36.81570434570313
 20
11.85466003417968
 10
36.78274917602539
 20
11.95039367675781
 10
36.74089050292969
 20
12.04258728027344
 10
36.69049453735353
 20
12.13040161132812
 10
36.63201904296875
 20
12.21305847167968
 10
36.56598663330078
 20
12.28981781005859
 10
36.49299240112305
 20
12.35997772216797
 10
36.41369247436524
 20
12.42293548583984
 10
36.32879257202148
 20
12.47809600830078
 10
36.23905563354492
 20
12.52498626708984
 10
36.14528656005859
 20
12.56317901611328
 10
36.04832077026367
 20
12.59233093261719
 10
36.04832077026367
 20
12.59233093261719
  0
LWPOLYLINE
  5
24E
330
67
100
AcDbEntity
  8
A
  6
Fin
 62
     7
370
    15
100
AcDbPolyline
 90
       35
 70
     0
 43
0.0
 10
23.75551605224609
 20
10.3281021118164
 10
23.74459838867188
 20
10.55010223388672
 10
23.71198654174805
 20
10.76996612548828
 10
23.65797805786133
 20
10.98556518554687
 10
23.58309936523438
 20
11.19484710693359
 10
23.48806762695312
 20
11.39577484130859
 10
23.37379837036133
 20
11.58641815185547
 10
23.24139404296875
 20
11.76494598388672
 10
23.09212875366211
 20
11.92962646484375
 10
22.92743682861328
 20
12.07889556884765
 10
22.7489128112793
 20
12.2113037109375
 10
22.55826187133789
 20
12.32556915283203
 10
22.35733413696289
 20
12.42059326171875
 10
22.14806365966797
 20
12.49547576904297
 10
21.93245315551758
 20
12.54948425292969
 10
21.71259307861328
 20
12.58209991455078
 10
21.49059677124023
 20
12.59300231933593
 10
21.49059677124023
 20
12.59300231933593
 10
21.26859664916992
 20
12.58209991455078
 10
21.04873275756836
 20
12.54948425292969
 10
20.83312606811523
 20
12.49547576904297
 10
20.62385559082031
 20
12.42059326171875
 10
20.42292404174805
 20
12.32556915283203
 10
20.23227691650391
 20
12.2113037109375
 10
20.05375671386719
 20
12.07889556884765
 10
19.88906478881836
 20
11.92963409423828
 10
19.73979568481445
 20
11.76494598388672
 10
19.60738754272461
 20
11.58641815185547
 10
19.49312210083007
 20
11.39577484130859
 10
19.39808654785156
 20
11.19484710693359
 10
19.32320785522461
 20
10.9855728149414
 10
19.26919937133789
 20
10.76997375488281
 10
19.23658370971679
 20
10.55010986328125
 10
19.22567367553711
 20
10.32810974121094
 10
19.22567367553711
 20
10.32810974121094
  0
LWPOLYLINE
  5
273
330
67
100
AcDbEntity
  8
A
  6
Fin
 62
     7
370
    15
100
AcDbPolyline
 90
        2
 70
     0
 43
0.0
 10
19.87366104125976
 20
14.20995330810547
 10
21.65208435058594
 20
14.20995330810547
  0
LWPOLYLINE
  5
277
330
67
100
AcDbEntity
  8
A
  6
Fin
 62
     7
370
    15
100
AcDbPolyline
 90
        2
 70
     0
 43
0.0
 10
20.68213272094727
 20
18.73877716064453
 10
19.87366104125976
 20
14.20995330810547
  0
LWPOLYLINE
  5
27B
330
67
100
AcDbEntity
  8
A
  6
Fin
 62
     7
370
    15
100
AcDbPolyline
 90
       37
 70
     0
 43
0.0
 10
19.2266845703125
 20
10.32807922363281
 10
19.23634338378906
 20
10.11919403076172
 10
19.2652359008789
 20
9.912094116210935
 10
19.3131103515625
 20
9.708541870117187
 10
19.37956237792969
 20
9.510261535644533
 10
19.46402740478515
 20
9.3189697265625
 10
19.56578063964844
 20
9.13629150390625
 10
19.68395614624023
 20
8.963775634765625
 10
19.81754302978515
 20
8.802894592285156
 10
19.96541213989258
 20
8.655036926269531
 10
20.12628173828125
 20
8.521446228027341
 10
20.29880523681641
 20
8.403274536132812
 10
20.48147964477539
 20
8.301513671875
 10
20.67277526855469
 20
8.217056274414062
 10
20.87104415893555
 20
8.150604248046875
 10
21.07460021972656
 20
8.10272216796875
 10
21.28171157836914
 20
8.073837280273437
 10
21.49059677124023
 20
8.064178466796875
 10
21.49059677124023
 20
8.064178466796875
 10
21.69947814941406
 20
8.073837280273437
 10
21.90658950805664
 20
8.10272216796875
 10
22.11014175415039
 20
8.150604248046875
 10
22.30840682983398
 20
8.217056274414062
 10
22.49970626831055
 20
8.301513671875
 10
22.6823844909668
 20
8.403274536132812
 10
22.85490036010742
 20
8.521446228027341
 10
23.01578140258789
 20
8.655036926269531
 10
23.16364288330078
 20
8.802894592285156
 10
23.29723358154297
 20
8.963775634765625
 10
23.4154052734375
 20
9.13629150390625
 10
23.51716232299805
 20
9.3189697265625
 10
23.60162353515625
 20
9.510261535644533
 10
23.6680793762207
 20
9.708541870117187
 10
23.7159538269043
 20
9.912094116210935
 10
23.74484252929688
 20
10.11919403076172
 10
23.75450134277344
 20
10.32807922363281
 10
23.75450134277344
 20
10.32809448242187
  0
ATTDEF
  5
2A2
330
67
100
AcDbEntity
  8
A
  6
Fin
 62
     2
370
    15
100
AcDbText
 10
102.7103805541992
 20
2.710005283355711
 30
0.0
 40
1.99285714285714
  1

 41
0.9659999561309811
 72
     4
 11
102.7103805541992
 21
2.710005283355711
 31
0.0
100
AcDbAttributeDefinition
  3

  2
$:12
 70
     0
 74
     2
  0
ATTDEF
  5
2A3
330
67
100
AcDbEntity
  8
A
  6
Fin
 62
     7
370
    15
100
AcDbText
 10
417.4982142857142
 20
296.0
 30
0.0
 40
0.9964285714285715
  1

 50
90.0
 41
1.207499945163725
 72
     2
 11
417.0
 21
296.0
 31
0.0
100
AcDbAttributeDefinition
  3

  2
$DOSSIER
 70
     0
 74
     2
  0
LINE
  5
2A4
330
67
100
AcDbEntity
  8
A
  6
Moyen
 62
     4
370
    25
100
AcDbLine
 10
0.0
 20
292.0
 30
0.0
 11
415.0
 21
292.0
 31
0.0
  0
TEXT
  5
2A6
330
67
100
AcDbEntity
  8
A
  6
Fin
 62
     7
370
    15
100
AcDbText
 10
9.502511754522302
 20
292.7727445969314
 30
0.0
 40
2.325
  1
1
 41
0.9659999561309811
  7
Arial
 72
     4
 11
10.37500047683716
 21
293.9400024414062
 31
0.0
100
AcDbText
  0
LINE
  5
2A7
330
67
100
AcDbEntity
  8
A
  6
Moyen
 62
     4
370
    25
100
AcDbLine
 10
20.75
 20
292.0
 30
0.0
 11
20.75
 21
297.0
 31
0.0
  0
TEXT
  5
2A8
330
67
100
AcDbEntity
  8
A
  6
Fin
 62
     7
370
    15
100
AcDbText
 10
30.25251223135946
 20
292.7727445969314
 30
0.0
 40
2.325
  1
2
 41
0.9659999561309811
  7
Arial
 72
     4
 11
31.12500095367432
 21
293.9400024414062
 31
0.0
100
AcDbText
  0
LINE
  5
2A9
330
67
100
AcDbEntity
  8
A
  6
Moyen
 62
     4
370
    25
100
AcDbLine
 10
41.5
 20
292.0
 30
0.0
 11
41.5
 21
297.0
 31
0.0
  0
TEXT
  5
2AA
330
67
100
AcDbEntity
  8
A
  6
Fin
 62
     7
370
    15
100
AcDbText
 10
51.00251127768514
 20
292.7933619229887
 30
0.0
 40
2.325
  1
3
 41
0.9659999561309811
  7
Arial
 72
     4
 11
51.875
 21
293.9400024414062
 31
0.0
100
AcDbText
  0
LINE
  5
2AB
330
67
100
AcDbEntity
  8
A
  6
Moyen
 62
     4
370
    25
100
AcDbLine
 10
62.25
 20
292.0
 30
0.0
 11
62.25
 21
297.0
 31
0.0
  0
TEXT
  5
2AC
330
67
100
AcDbEntity
  8
A
  6
Fin
 62
     7
370
    15
100
AcDbText
 10
71.75251509238241
 20
292.7775024414062
 30
0.0
 40
2.325
  1
4
 41
0.9659999561309811
  7
Arial
 72
     4
 11
72.62500381469727
 21
293.9400024414062
 31
0.0
100
AcDbText
  0
LINE
  5
2AD
330
67
100
AcDbEntity
  8
A
  6
Moyen
 62
     4
370
    25
100
AcDbLine
 10
83.0
 20
292.0
 30
0.0
 11
83.0
 21
297.0
 31
0.0
  0
TEXT
  5
2AE
330
67
100
AcDbEntity
  8
A
  6
Fin
 62
     7
370
    15
100
AcDbText
 10
92.50251509238243
 20
292.8131862749669
 30
0.0
 40
2.325
  1
5
 41
0.9659999561309811
  7
Arial
 72
     4
 11
93.37500381469729
 21
293.9400024414062
 31
0.0
100
AcDbText
  0
LINE
  5
2AF
330
67
100
AcDbEntity
  8
A
  6
Moyen
 62
     4
370
    25
100
AcDbLine
 10
103.75
 20
292.0
 30
0.0
 11
103.75
 21
297.0
 31
0.0
  0
TEXT
  5
2B0
330
67
100
AcDbEntity
  8
A
  6
Fin
 62
     7
370
    15
100
AcDbText
 10
113.2525150923824
 20
292.7925689489096
 30
0.0
 40
2.325
  1
6
 41
0.9659999561309811
  7
Arial
 72
     4
 11
114.1250038146973
 21
293.9400024414062
 31
0.0
100
AcDbText
  0
LINE
  5
2B1
330
67
100
AcDbEntity
  8
A
  6
Moyen
 62
     4
370
    25
100
AcDbLine
 10
124.5
 20
292.0
 30
0.0
 11
124.5
 21
297.0
 31
0.0
  0
TEXT
  5
2B2
330
67
100
AcDbEntity
  8
A
  6
Fin
 62
     7
370
    15
100
AcDbText
 10
134.0025112776851
 20
292.7925689489096
 30
0.0
 40
2.325
  1
7
 41
0.9659999561309811
  7
Arial
 72
     4
 11
134.875
 21
293.9400024414062
 31
0.0
100
AcDbText
  0
LINE
  5
2B3
330
67
100
AcDbEntity
  8
A
  6
Moyen
 62
     4
370
    25
100
AcDbLine
 10
145.25
 20
292.0
 30
0.0
 11
145.25
 21
297.0
 31
0.0
  0
TEXT
  5
2B4
330
67
100
AcDbEntity
  8
A
  6
Fin
 62
     7
370
    15
100
AcDbText
 10
154.7525112776851
 20
292.7925689489096
 30
0.0
 40
2.325
  1
8
 41
0.9659999561309811
  7
Arial
 72
     4
 11
155.625
 21
293.9400024414062
 31
0.0
100
AcDbText
  0
LINE
  5
2B5
330
67
100
AcDbEntity
  8
A
  6
Moyen
 62
     4
370
    25
100
AcDbLine
 10
166.0
 20
292.0
 30
0.0
 11
166.0
 21
297.0
 31
0.0
  0
TEXT
  5
2B6
330
67
100
AcDbEntity
  8
A
  6
Fin
 62
     7
370
    15
100
AcDbText
 10
175.5025112776851
 20
292.7925689489096
 30
0.0
 40
2.325
  1
9
 41
0.9659999561309811
  7
Arial
 72
     4
 11
176.375
 21
293.9400024414062
 31
0.0
100
AcDbText
  0
LINE
  5
2B7
330
67
100
AcDbEntity
  8
A
  6
Moyen
 62
     4
370
    25
100
AcDbLine
 10
186.75
 20
292.0
 30
0.0
 11
186.75
 21
297.0
 31
0.0
  0
TEXT
  5
2B8
330
67
100
AcDbEntity
  8
A
  6
Fin
 62
     7
370
    15
100
AcDbText
 10
195.3800301847648
 20
292.7925689489096
 30
0.0
 40
2.325
  1
10
 41
0.9659999561309811
  7
Arial
 72
     4
 11
197.1250076293945
 21
293.9400024414062
 31
0.0
100
AcDbText
  0
LINE
  5
2B9
330
67
100
AcDbEntity
  8
A
  6
Moyen
 62
     4
370
    25
100
AcDbLine
 10
207.5
 20
292.0
 30
0.0
 11
207.5
 21
297.0
 31
0.0
  0
TEXT
  5
2BA
330
67
100
AcDbEntity
  8
A
  6
Fin
 62
     7
370
    15
100
AcDbText
 10
216.1300301847648
 20
292.7727445969314
 30
0.0
 40
2.325
  1
11
 41
0.9659999561309811
  7
Arial
 72
     4
 11
217.8750076293945
 21
293.9400024414062
 31
0.0
100
AcDbText
  0
LINE
  5
2BB
330
67
100
AcDbEntity
  8
A
  6
Moyen
 62
     4
370
    25
100
AcDbLine
 10
228.25
 20
292.0
 30
0.0
 11
228.25
 21
297.0
 31
0.0
  0
TEXT
  5
2BC
330
67
100
AcDbEntity
  8
A
  6
Fin
 62
     7
370
    15
100
AcDbText
 10
236.8800301847648
 20
292.7727445969314
 30
0.0
 40
2.325
  1
12
 41
0.9659999561309811
  7
Arial
 72
     4
 11
238.6250076293945
 21
293.9400024414062
 31
0.0
100
AcDbText
  0
LINE
  5
2BD
330
67
100
AcDbEntity
  8
A
  6
Moyen
 62
     4
370
    25
100
AcDbLine
 10
249.0
 20
292.0
 30
0.0
 11
249.0
 21
297.0
 31
0.0
  0
TEXT
  5
2BE
330
67
100
AcDbEntity
  8
A
  6
Fin
 62
     7
370
    15
100
AcDbText
 10
257.6300225553703
 20
292.7933619229887
 30
0.0
 40
2.325
  1
13
 41
0.9659999561309811
  7
Arial
 72
     4
 11
259.375
 21
293.9400024414062
 31
0.0
100
AcDbText
  0
LINE
  5
2BF
330
67
100
AcDbEntity
  8
A
  6
Moyen
 62
     4
370
    25
100
AcDbLine
 10
269.75
 20
292.0
 30
0.0
 11
269.75
 21
297.0
 31
0.0
  0
TEXT
  5
2C0
330
67
100
AcDbEntity
  8
A
  6
Fin
 62
     7
370
    15
100
AcDbText
 10
278.3800225553703
 20
292.7727445969314
 30
0.0
 40
2.325
  1
14
 41
0.9659999561309811
  7
Arial
 72
     4
 11
280.125
 21
293.9400024414062
 31
0.0
100
AcDbText
  0
LINE
  5
2C1
330
67
100
AcDbEntity
  8
A
  6
Moyen
 62
     4
370
    25
100
AcDbLine
 10
290.5
 20
292.0
 30
0.0
 11
290.5
 21
297.0
 31
0.0
  0
TEXT
  5
2C2
330
67
100
AcDbEntity
  8
A
  6
Fin
 62
     7
370
    15
100
AcDbText
 10
299.1300225553703
 20
292.7925689489096
 30
0.0
 40
2.325
  1
15
 41
0.9659999561309811
  7
Arial
 72
     4
 11
300.875
 21
293.9400024414062
 31
0.0
100
AcDbText
  0
LINE
  5
2C3
330
67
100
AcDbEntity
  8
A
  6
Moyen
 62
     4
370
    25
100
AcDbLine
 10
311.25
 20
292.0
 30
0.0
 11
311.25
 21
297.0
 31
0.0
  0
TEXT
  5
2C4
330
67
100
AcDbEntity
  8
A
  6
Fin
 62
     7
370
    15
100
AcDbText
 10
319.8800225553703
 20
292.7925689489096
 30
0.0
 40
2.325
  1
16
 41
0.9659999561309811
  7
Arial
 72
     4
 11
321.625
 21
293.9400024414062
 31
0.0
100
AcDbText
  0
LINE
  5
2C5
330
67
100
AcDbEntity
  8
A
  6
Moyen
 62
     4
370
    25
100
AcDbLine
 10
332.0
 20
292.0
 30
0.0
 11
332.0
 21
297.0
 31
0.0
  0
TEXT
  5
2C6
330
67
100
AcDbEntity
  8
A
  6
Fin
 62
     7
370
    15
100
AcDbText
 10
340.6300225553703
 20
292.7727445969314
 30
0.0
 40
2.325
  1
17
 41
0.9659999561309811
  7
Arial
 72
     4
 11
342.375
 21
293.9400024414062
 31
0.0
100
AcDbText
  0
LINE
  5
2C7
330
67
100
AcDbEntity
  8
A
  6
Moyen
 62
     4
370
    25
100
AcDbLine
 10
352.75
 20
292.0
 30
0.0
 11
352.75
 21
297.0
 31
0.0
  0
TEXT
  5
2C8
330
67
100
AcDbEntity
  8
A
  6
Fin
 62
     7
370
    15
100
AcDbText
 10
361.3800225553703
 20
292.7925689489096
 30
0.0
 40
2.325
  1
18
 41
0.9659999561309811
  7
Arial
 72
     4
 11
363.125
 21
293.9400024414062
 31
0.0
100
AcDbText
  0
LINE
  5
2C9
330
67
100
AcDbEntity
  8
A
  6
Moyen
 62
     4
370
    25
100
AcDbLine
 10
373.5
 20
292.0
 30
0.0
 11
373.5
 21
297.0
 31
0.0
  0
TEXT
  5
2CA
330
67
100
AcDbEntity
  8
A
  6
Fin
 62
     7
370
    15
100
AcDbText
 10
382.1300225553703
 20
292.7925689489096
 30
0.0
 40
2.325
  1
19
 41
0.9659999561309811
  7
Arial
 72
     4
 11
383.875
 21
293.9400024414062
 31
0.0
100
AcDbText
  0
LINE
  5
2CB
330
67
100
AcDbEntity
  8
A
  6
Moyen
 62
     4
370
    25
100
AcDbLine
 10
394.25
 20
292.0
 30
0.0
 11
394.25
 21
297.0
 31
0.0
  0
TEXT
  5
2CC
330
67
100
AcDbEntity
  8
A
  6
Fin
 62
     7
370
    15
100
AcDbText
 10
402.88002255537
 20
292.7925689489096
 30
0.0
 40
2.325
  1
20
 41
0.9659999561309811
  7
Arial
 72
     4
 11
404.6249999999998
 21
293.9400024414062
 31
0.0
100
AcDbText
  0
LINE
  5
2CD
330
67
100
AcDbEntity
  8
A
  6
Moyen
 62
     4
370
    25
100
AcDbLine
 10
415.0
 20
292.0
 30
0.0
 11
415.0
 21
297.0
 31
0.0
  0
LWPOLYLINE
  5
2CE
330
67
100
AcDbEntity
  8
A
  6
Moyen
 62
     4
370
    25
100
AcDbPolyline
 90
        5
 70
     0
 43
0.0
 10
0.0
 20
20.0
 10
0.0
 20
297.0
 10
415.0
 20
297.0
 10
415.0
 20
20.0
 10
0.0
 20
20.0
  0
LWPOLYLINE
  5
2D5
330
67
100
AcDbEntity
  8
A
  6
Moyen
 62
     4
370
    25
100
AcDbPolyline
 90
        5
 70
     0
 43
0.0
 10
0.0
 20
0.0
 10
0.0
 20
297.0
 10
420.0
 20
297.0
 10
420.0
 20
0.0
 10
0.0
 20
0.0
  0
ENDBLK
  5
2DD
330
67
100
AcDbEntity
  8
0
100
AcDbBlockEnd
  0
BLOCK
  5
3AC
330
2FE
100
AcDbEntity
  8
0
100
AcDbBlockBegin
  2
_FX_VARIATEUR_0_4_0
 70
     2
 10
0.0
 20
0.0
 30
0.0
  3
_FX_VARIATEUR_0_4_0
  1

  0
ATTDEF
  5
2FF
330
2FE
100
AcDbEntity
  8
A
  6
Fin
 62
     3
370
    15
100
AcDbText
 10
-0.0000000000000001
 20
-28.15541996609594
 30
0.0
 40
2.953698830263953
  1

 41
0.9659999561309811
  7
Arial
 11
0.0
 21
-26.67857055096397
 31
0.0
100
AcDbAttributeDefinition
  3

  2
$ETIQUETTE
 70
     0
 74
     2
  0
ATTDEF
  5
300
330
2FE
100
AcDbEntity
  8
A
  6
Fin
 62
     3
370
    15
100
AcDbText
 10
-0.0000000000000001
 20
-21.07465879849025
 30
0.0
 40
2.625510071345736
  1

 41
0.9659999561309811
  7
Arial
 11
0.0
 21
-19.76190376281738
 31
0.0
100
AcDbAttributeDefinition
  3

  2
$LOCALISATION
 70
     0
 74
     2
  0
ATTDEF
  5
301
330
2FE
100
AcDbEntity
  8
A
  6
Fin
 62
     3
370
    15
100
AcDbText
 10
-0.0000000000000001
 20
-14.15799318824492
 30
0.0
 40
2.625510071345736
  1

 41
0.9659999561309811
  7
Arial
 11
0.0
 21
-12.84523815257205
 31
0.0
100
AcDbAttributeDefinition
  3

  2
$FONCTION
 70
     0
 74
     2
  0
ATTDEF
  5
302
330
2FE
100
AcDbEntity
  8
A
  6
Fin
 62
     1
370
    15
100
AcDbText
 10
10.37499664851611
 20
-38.69627969020879
 30
0.0
 40
2.29732131242752
  1

 41
0.9659999561309811
  7
Arial
 11
10.37499664851611
 21
-37.54761903399503
 31
0.0
100
AcDbAttributeDefinition
  3

  2
PRODUIT
 70
     0
 74
     2
  0
ATTDEF
  5
303
330
2FE
100
AcDbEntity
  8
A
  6
Fin
 62
     1
370
    15
100
AcDbText
 10
-0.0000000000000001
 20
-46.60104307997775
 30
0.0
 40
2.29732131242752
  1

 41
0.9659999561309811
  7
Arial
 11
0.0
 21
-45.45238242376399
 31
0.0
100
AcDbAttributeDefinition
  3

  2
SYMBOLE
 70
     0
 74
     2
  0
ATTDEF
  5
304
330
2FE
100
AcDbEntity
  8
A
  6
Fin
 62
     1
370
    15
100
AcDbText
 10
10.37500136012113
 20
-34.74389799532432
 30
0.0
 40
2.29732131242752
  1

 41
0.9659999561309811
  7
Arial
 11
10.37500136012113
 21
-33.59523733911056
 31
0.0
100
AcDbAttributeDefinition
  3

  2
FABRICANT
 70
     0
 74
     2
  0
ATTDEF
  5
305
330
2FE
100
AcDbEntity
  8
A
  6
Fin
 62
     1
370
    15
100
AcDbText
 10
-0.2470318067637437
 20
-42.64865667348825
 30
0.0
 40
2.29732131242752
  1

 41
0.9659999561309811
  7
Arial
 11
-0.2470318067637436
 21
-41.4999960172745
 31
0.0
100
AcDbAttributeDefinition
  3

  2
SERIE
 70
     0
 74
     2
  0
ATTDEF
  5
306
330
2FE
100
AcDbEntity
  8
A
  6
Fin
 62
     4
370
    15
100
AcDbText
 10
-0.0000000000000001
 20
-34.74389799532432
 30
0.0
 40
2.29732131242752
  1

 41
0.9659999561309811
  7
Arial
 11
0.0
 21
-33.59523733911056
 31
0.0
100
AcDbAttributeDefinition
  3

  2
FAB
 70
     0
 74
     2
  0
ATTDEF
  5
307
330
2FE
100
AcDbEntity
  8
A
  6
Fin
 62
     4
370
    15
100
AcDbText
 10
-0.0000000000000001
 20
-38.69627969020879
 30
0.0
 40
2.29732131242752
  1

 41
0.9659999561309811
  7
Arial
 11
0.0
 21
-37.54761903399503
 31
0.0
100
AcDbAttributeDefinition
  3

  2
TYPE
 70
     0
 74
     2
  0
ATTDEF
  5
308
330
2FE
100
AcDbEntity
  8
A
  6
Fin
 62
     1
370
    15
100
AcDbText
 10
0.0
 20
-4.446428817794412
 30
0.0
 40
1.969132553509303
  1

 41
0.9659999561309811
  7
Arial
 72
     4
 11
0.0
 21
-4.446428817794412
 31
0.0
100
AcDbAttributeDefinition
  3

  2
$PL:1
 70
     0
 74
     2
  0
ATTDEF
  5
309
330
2FE
100
AcDbEntity
  8
A
  6
Fin
 62
     1
370
    15
100
AcDbText
 10
9.880951881408693
 20
-4.446428817794412
 30
0.0
 40
1.969132553509303
  1

 41
0.9659999561309811
  7
Arial
 72
     4
 11
9.880951881408693
 21
-4.446428817794412
 31
0.0
100
AcDbAttributeDefinition
  3

  2
$PL:2
 70
     0
 74
     2
  0
ATTDEF
  5
30A
330
2FE
100
AcDbEntity
  8
A
  6
Fin
 62
     1
370
    15
100
AcDbText
 10
19.76190376281738
 20
-4.446428817794412
 30
0.0
 40
1.969132553509303
  1

 41
0.9659999561309811
  7
Arial
 72
     4
 11
19.76190376281738
 21
-4.446428817794412
 31
0.0
100
AcDbAttributeDefinition
  3

  2
$PL:3
 70
     0
 74
     2
  0
ATTDEF
  5
30B
330
2FE
100
AcDbEntity
  8
A
  6
Fin
 62
     1
370
    15
100
AcDbText
 10
29.64286506743611
 20
-4.446428817794412
 30
0.0
 40
1.969132553509303
  1

 41
0.9659999561309811
  7
Arial
 72
     4
 11
29.64286506743611
 21
-4.446428817794412
 31
0.0
100
AcDbAttributeDefinition
  3

  2
$PL:4
 70
     0
 74
     2
  0
ATTDEF
  5
30C
330
2FE
100
AcDbEntity
  8
A
  6
Fin
 62
     1
370
    15
100
AcDbText
 10
-9.880961304618722
 20
-40.01432667947947
 30
0.0
 40
1.969132553509303
  1

 41
0.9659999561309811
  7
Arial
 11
-9.880961304618722
 21
-39.02976040272483
 31
0.0
100
AcDbAttributeDefinition
  3

  2
$PL:5
 70
     0
 74
     2
  0
ATTDEF
  5
30D
330
2FE
100
AcDbEntity
  8
A
  6
Fin
 62
     1
370
    15
100
AcDbText
 10
-9.880951881408693
 20
-30.13337479807079
 30
0.0
 40
1.969132553509303
  1

 41
0.9659999561309811
  7
Arial
 11
-9.880951881408693
 21
-29.14880852131614
 31
0.0
100
AcDbAttributeDefinition
  3

  2
$PL:6
 70
     0
 74
     2
  0
ATTDEF
  5
30E
330
2FE
100
AcDbEntity
  8
A
  6
Fin
 62
     1
370
    15
100
AcDbText
 10
-9.880951881408693
 20
-20.74647003957203
 30
0.0
 40
1.969132553509303
  1

 41
0.9659999561309811
  7
Arial
 11
-9.880951881408693
 21
-19.76190376281738
 31
0.0
100
AcDbAttributeDefinition
  3

  2
$PL:7
 70
     0
 74
     2
  0
ATTDEF
  5
30F
330
2FE
100
AcDbEntity
  8
A
  6
Fin
 62
     1
370
    15
100
AcDbText
 10
-9.880951881408693
 20
-10.86551815816334
 30
0.0
 40
1.969132553509303
  1

 41
0.9659999561309811
  7
Arial
 11
-9.880951881408693
 21
-9.880951881408693
 31
0.0
100
AcDbAttributeDefinition
  3

  2
$PL:8
 70
     0
 74
     2
  0
ATTDEF
  5
310
330
2FE
100
AcDbEntity
  8
A
  6
Fin
 62
     1
370
    15
100
AcDbText
 10
0.0
 20
-48.910709928331
 30
0.0
 40
1.969132553509303
  1

 41
0.9659999561309811
  7
Arial
 72
     4
 11
0.0
 21
-48.910709928331
 31
0.0
100
AcDbAttributeDefinition
  3

  2
$PL:9
 70
     0
 74
     2
  0
ATTDEF
  5
311
330
2FE
100
AcDbEntity
  8
A
  6
Fin
 62
     1
370
    15
100
AcDbText
 10
9.880951881408693
 20
-48.910709928331
 30
0.0
 40
1.969132553509303
  1

 41
0.9659999561309811
  7
Arial
 72
     4
 11
9.880951881408693
 21
-48.910709928331
 31
0.0
100
AcDbAttributeDefinition
  3

  2
$PL:10
 70
     0
 74
     2
  0
ATTDEF
  5
312
330
2FE
100
AcDbEntity
  8
A
  6
Fin
 62
     1
370
    15
100
AcDbText
 10
19.76190376281738
 20
-48.910709928331
 30
0.0
 40
1.969132553509303
  1

 41
0.9659999561309811
  7
Arial
 72
     4
 11
19.76190376281738
 21
-48.910709928331
 31
0.0
100
AcDbAttributeDefinition
  3

  2
$PL:11
 70
     0
 74
     2
  0
ATTDEF
  5
313
330
2FE
100
AcDbEntity
  8
A
  6
Fin
 62
     1
370
    15
100
AcDbText
 10
29.64285564422608
 20
-48.910709928331
 30
0.0
 40
1.969132553509303
  1

 41
0.9659999561309811
  7
Arial
 72
     4
 11
29.64285564422608
 21
-48.910709928331
 31
0.0
100
AcDbAttributeDefinition
  3

  2
$PL:12
 70
     0
 74
     2
  0
ATTDEF
  5
314
330
2FE
100
AcDbEntity
  8
A
  6
Fin
 62
     1
370
    15
100
AcDbText
 10
177.8571338653564
 20
-48.910709928331
 30
0.0
 40
1.969132553509303
  1

 41
0.9659999561309811
  7
Arial
 72
     4
 11
177.8571338653564
 21
-48.910709928331
 31
0.0
100
AcDbAttributeDefinition
  3

  2
$PL:13
 70
     0
 74
     2
  0
ATTDEF
  5
315
330
2FE
100
AcDbEntity
  8
A
  6
Fin
 62
     1
370
    15
100
AcDbText
 10
192.6785616874695
 20
-48.910709928331
 30
0.0
 40
1.969132553509303
  1

 41
0.9659999561309811
  7
Arial
 72
     4
 11
192.6785616874695
 21
-48.910709928331
 31
0.0
100
AcDbAttributeDefinition
  3

  2
$PL:14
 70
     0
 74
     2
  0
ATTDEF
  5
316
330
2FE
100
AcDbEntity
  8
A
  6
Fin
 62
     1
370
    15
100
AcDbText
 10
163.0357060432434
 20
-48.910709928331
 30
0.0
 40
1.969132553509303
  1

 41
0.9659999561309811
  7
Arial
 72
     4
 11
163.0357060432434
 21
-48.910709928331
 31
0.0
100
AcDbAttributeDefinition
  3

  2
$PL:15
 70
     0
 74
     2
  0
ATTDEF
  5
317
330
2FE
100
AcDbEntity
  8
A
  6
Fin
 62
     1
370
    15
100
AcDbText
 10
148.2142782211304
 20
-48.910709928331
 30
0.0
 40
1.969132553509303
  1

 41
0.9659999561309811
  7
Arial
 72
     4
 11
148.2142782211304
 21
-48.910709928331
 31
0.0
100
AcDbAttributeDefinition
  3

  2
$PL:16
 70
     0
 74
     2
  0
ATTDEF
  5
318
330
2FE
100
AcDbEntity
  8
A
  6
Fin
 62
     1
370
    15
100
AcDbText
 10
222.3214173316955
 20
-48.910709928331
 30
0.0
 40
1.969132553509303
  1

 41
0.9659999561309811
  7
Arial
 72
     4
 11
222.3214173316955
 21
-48.910709928331
 31
0.0
100
AcDbAttributeDefinition
  3

  2
$PL:17
 70
     0
 74
     2
  0
ATTDEF
  5
319
330
2FE
100
AcDbEntity
  8
A
  6
Fin
 62
     1
370
    15
100
AcDbText
 10
138.3333263397217
 20
-48.910709928331
 30
0.0
 40
1.969132553509303
  1

 41
0.9659999561309811
  7
Arial
 72
     4
 11
138.3333263397217
 21
-48.910709928331
 31
0.0
100
AcDbAttributeDefinition
  3

  2
$PL:18
 70
     0
 74
     2
  0
ATTDEF
  5
31A
330
2FE
100
AcDbEntity
  8
A
  6
Fin
 62
     1
370
    15
100
AcDbText
 10
251.9642729759216
 20
-48.910709928331
 30
0.0
 40
1.969132553509303
  1

 41
0.9659999561309811
  7
Arial
 72
     4
 11
251.9642729759216
 21
-48.910709928331
 31
0.0
100
AcDbAttributeDefinition
  3

  2
$PL:19
 70
     0
 74
     2
  0
ATTDEF
  5
31B
330
2FE
100
AcDbEntity
  8
A
  6
Fin
 62
     1
370
    15
100
AcDbText
 10
266.7857007980347
 20
-48.910709928331
 30
0.0
 40
1.969132553509303
  1

 41
0.9659999561309811
  7
Arial
 72
     4
 11
266.7857007980347
 21
-48.910709928331
 31
0.0
100
AcDbAttributeDefinition
  3

  2
$PL:20
 70
     0
 74
     2
  0
ATTDEF
  5
31C
330
2FE
100
AcDbEntity
  8
A
  6
Fin
 62
     1
370
    15
100
AcDbText
 10
281.6071286201477
 20
-4.446426461991903
 30
0.0
 40
1.969132553509303
  1

 41
0.9659999561309811
  7
Arial
 72
     4
 11
281.6071286201477
 21
-4.446426461991903
 31
0.0
100
AcDbAttributeDefinition
  3

  2
$PL:21
 70
     0
 74
     2
  0
ATTDEF
  5
31D
330
2FE
100
AcDbEntity
  8
A
  6
Fin
 62
     1
370
    15
100
AcDbText
 10
128.452374458313
 20
-4.446426461991903
 30
0.0
 40
1.969132553509303
  1

 41
0.9659999561309811
  7
Arial
 72
     4
 11
128.452374458313
 21
-4.446426461991903
 31
0.0
100
AcDbAttributeDefinition
  3

  2
$PL:22
 70
     0
 74
     2
  0
ATTDEF
  5
31E
330
2FE
100
AcDbEntity
  8
A
  6
Fin
 62
     1
370
    15
100
AcDbText
 10
113.6309466361999
 20
-4.446426461991903
 30
0.0
 40
1.969132553509303
  1

 41
0.9659999561309811
  7
Arial
 72
     4
 11
113.6309466361999
 21
-4.446426461991903
 31
0.0
100
AcDbAttributeDefinition
  3

  2
$PL:23
 70
     0
 74
     2
  0
ATTDEF
  5
31F
330
2FE
100
AcDbEntity
  8
A
  6
Fin
 62
     1
370
    15
100
AcDbText
 10
143.273802280426
 20
-4.446426461991903
 30
0.0
 40
1.969132553509303
  1

 41
0.9659999561309811
  7
Arial
 72
     4
 11
143.273802280426
 21
-4.446426461991903
 31
0.0
100
AcDbAttributeDefinition
  3

  2
$PL:24
 70
     0
 74
     2
  0
ATTDEF
  5
320
330
2FE
100
AcDbEntity
  8
A
  6
Fin
 62
     1
370
    15
100
AcDbText
 10
158.0952301025391
 20
-4.446426461991903
 30
0.0
 40
1.969132553509303
  1

 41
0.9659999561309811
  7
Arial
 72
     4
 11
158.0952301025391
 21
-4.446426461991903
 31
0.0
100
AcDbAttributeDefinition
  3

  2
$PL:25
 70
     0
 74
     2
  0
ATTDEF
  5
321
330
2FE
100
AcDbEntity
  8
A
  6
Fin
 62
     1
370
    15
100
AcDbText
 10
172.9166579246521
 20
-4.446426461991903
 30
0.0
 40
1.969132553509303
  1

 41
0.9659999561309811
  7
Arial
 72
     4
 11
172.9166579246521
 21
-4.446426461991903
 31
0.0
100
AcDbAttributeDefinition
  3

  2
$PL:26
 70
     0
 74
     2
  0
ATTDEF
  5
322
330
2FE
100
AcDbEntity
  8
A
  6
Fin
 62
     1
370
    15
100
AcDbText
 10
202.5595135688782
 20
-4.446426461991903
 30
0.0
 40
1.969132553509303
  1

 41
0.9659999561309811
  7
Arial
 72
     4
 11
202.5595135688782
 21
-4.446426461991903
 31
0.0
100
AcDbAttributeDefinition
  3

  2
$PL:27
 70
     0
 74
     2
  0
ATTDEF
  5
323
330
2FE
100
AcDbEntity
  8
A
  6
Fin
 62
     1
370
    15
100
AcDbText
 10
187.7380857467651
 20
-4.446426461991903
 30
0.0
 40
1.969132553509303
  1

 41
0.9659999561309811
  7
Arial
 72
     4
 11
187.7380857467651
 21
-4.446426461991903
 31
0.0
100
AcDbAttributeDefinition
  3

  2
$PL:28
 70
     0
 74
     2
  0
ATTDEF
  5
324
330
2FE
100
AcDbEntity
  8
A
  6
Fin
 62
     1
370
    15
100
AcDbText
 10
266.7857007980347
 20
-4.446426461991903
 30
0.0
 40
1.969132553509303
  1

 41
0.9659999561309811
  7
Arial
 72
     4
 11
266.7857007980347
 21
-4.446426461991903
 31
0.0
100
AcDbAttributeDefinition
  3

  2
$PL:29
 70
     0
 74
     2
  0
ATTDEF
  5
325
330
2FE
100
AcDbEntity
  8
A
  6
Fin
 62
     1
370
    15
100
AcDbText
 10
232.2023692131041
 20
-4.446426461991903
 30
0.0
 40
1.969132553509303
  1

 41
0.9659999561309811
  7
Arial
 72
     4
 11
232.2023692131041
 21
-4.446426461991903
 31
0.0
100
AcDbAttributeDefinition
  3

  2
$PL:30
 70
     0
 74
     2
  0
ATTDEF
  5
326
330
2FE
100
AcDbEntity
  8
A
  6
Fin
 62
     1
370
    15
100
AcDbText
 10
44.4642834663391
 20
-4.446426461991903
 30
0.0
 40
1.969132553509303
  1

 41
0.8452499616146088
  7
Arial
 72
     4
 11
44.4642834663391
 21
-4.446426461991903
 31
0.0
100
AcDbAttributeDefinition
  3

  2
$PL:31
 70
     0
 74
     2
  0
ATTDEF
  5
327
330
2FE
100
AcDbEntity
  8
A
  6
Fin
 62
     1
370
    15
100
AcDbText
 10
54.34523534774779
 20
-4.446426461991903
 30
0.0
 40
1.969132553509303
  1

 41
0.8452499616146088
  7
Arial
 72
     4
 11
54.34523534774779
 21
-4.446426461991903
 31
0.0
100
AcDbAttributeDefinition
  3

  2
$PL:32
 70
     0
 74
     2
  0
ATTDEF
  5
328
330
2FE
100
AcDbEntity
  8
A
  6
Fin
 62
     1
370
    15
100
AcDbText
 10
64.22618722915649
 20
-4.446426461991903
 30
0.0
 40
1.969132553509303
  1

 41
0.8452499616146088
  7
Arial
 72
     4
 11
64.22618722915649
 21
-4.446426461991903
 31
0.0
100
AcDbAttributeDefinition
  3

  2
$PL:33
 70
     0
 74
     2
  0
ATTDEF
  5
329
330
2FE
100
AcDbEntity
  8
A
  6
Fin
 62
     1
370
    15
100
AcDbText
 10
74.10713911056518
 20
-4.446426461991903
 30
0.0
 40
1.969132553509303
  1

 41
0.8452499616146088
  7
Arial
 72
     4
 11
74.10713911056518
 21
-4.446426461991903
 31
0.0
100
AcDbAttributeDefinition
  3

  2
$PL:34
 70
     0
 74
     2
  0
ATTDEF
  5
32A
330
2FE
100
AcDbEntity
  8
A
  6
Fin
 62
     1
370
    15
100
AcDbText
 10
281.6071286201477
 20
-28.40773665904999
 30
0.0
 40
1.969132553509303
  1

 41
0.9659999561309811
  7
Arial
 72
     4
 11
281.6071286201477
 21
-28.40773665904999
 31
0.0
100
AcDbAttributeDefinition
  3

  2
$PL:35
 70
     0
 74
     2
  0
ATTDEF
  5
32B
330
2FE
100
AcDbEntity
  8
A
  6
Fin
 62
     1
370
    15
100
AcDbText
 10
281.6071286201477
 20
-49.40475940704345
 30
0.0
 40
1.969132553509303
  1

 41
0.9659999561309811
  7
Arial
 72
     4
 11
281.6071286201477
 21
-49.40475940704345
 31
0.0
100
AcDbAttributeDefinition
  3

  2
$PL:36
 70
     0
 74
     2
  0
ATTDEF
  5
32C
330
2FE
100
AcDbEntity
  8
A
  6
Fin
 62
     1
370
    15
100
AcDbText
 10
69.16666316986084
 20
24.70237970352173
 30
0.0
 40
1.969132553509303
  1

 41
0.9659999561309811
  7
Arial
 72
     4
 11
69.16666316986084
 21
24.70237970352173
 31
0.0
100
AcDbAttributeDefinition
  3

  2
$POS_REFCRO_1
 70
     0
 74
     2
  0
ATTDEF
  5
32D
330
2FE
100
AcDbEntity
  8
A
  6
Fin
 62
     1
370
    15
100
AcDbText
 10
-9.880951881408693
 20
-14.82142782211304
 30
0.0
 40
1.969132553509303
  1

 41
0.9659999561309811
  7
Arial
 72
     4
 11
-9.880951881408693
 21
-14.82142782211304
 31
0.0
100
AcDbAttributeDefinition
  3

  2
TEXT
 70
     0
 74
     2
  0
ATTDEF
  5
32E
330
2FE
100
AcDbEntity
  8
A
  6
Fin
 62
     3
370
    15
100
AcDbText
 10
39.52380752563477
 20
-21.07465879849025
 30
0.0
 40
2.625510071345736
  1

 41
0.9659999561309811
  7
Arial
 11
39.52380752563477
 21
-19.76190376281738
 31
0.0
100
AcDbAttributeDefinition
  3

  2
COMMENT1
 70
     0
 74
     2
  0
ATTDEF
  5
32F
330
2FE
100
AcDbEntity
  8
A
  6
Fin
 62
     3
370
    15
100
AcDbText
 10
39.52380752563477
 20
-27.99132558663684
 30
0.0
 40
2.625510071345736
  1

 41
0.9659999561309811
  7
Arial
 11
39.52380752563477
 21
-26.67857055096397
 31
0.0
100
AcDbAttributeDefinition
  3

  2
COMMENT2
 70
     0
 74
     2
  0
ATTDEF
  5
330
330
2FE
100
AcDbEntity
  8
A
  6
Fin
 62
     1
370
    15
100
AcDbText
 10
207.4999895095825
 20
-48.910709928331
 30
0.0
 40
1.969132553509303
  1

 41
0.9659999561309811
  7
Arial
 72
     4
 11
207.4999895095825
 21
-48.910709928331
 31
0.0
100
AcDbAttributeDefinition
  3

  2
$PL:37
 70
     0
 74
     2
  0
ATTDEF
  5
331
330
2FE
100
AcDbEntity
  8
A
  6
Fin
 62
     1
370
    15
100
AcDbText
 10
237.1428451538086
 20
-48.910709928331
 30
0.0
 40
1.969132553509303
  1

 41
0.9659999561309811
  7
Arial
 72
     4
 11
237.1428451538086
 21
-48.910709928331
 31
0.0
100
AcDbAttributeDefinition
  3

  2
$PL:38
 70
     0
 74
     2
  0
CIRCLE
  5
332
330
2FE
100
AcDbEntity
  8
A
  6
Symbol_C
 62
     4
370
    25
100
AcDbCircle
 10
19.76190376281738
 20
-0.98809542372112
 30
0.0
 40
0.9880989574248816
  0
CIRCLE
  5
333
330
2FE
100
AcDbEntity
  8
A
  6
Symbol_C
 62
     4
370
    25
100
AcDbCircle
 10
29.64285564422608
 20
-0.98809542372112
 30
0.0
 40
0.9880989574248816
  0
CIRCLE
  5
334
330
2FE
100
AcDbEntity
  8
A
  6
Symbol_C
 62
     4
370
    25
100
AcDbCircle
 10
0.0
 20
-53.35713639032292
 30
0.0
 40
0.9880989574248816
  0
CIRCLE
  5
335
330
2FE
100
AcDbEntity
  8
A
  6
Symbol_C
 62
     4
370
    25
100
AcDbCircle
 10
19.76190376281738
 20
-53.35713639032292
 30
0.0
 40
0.9880989574248816
  0
CIRCLE
  5
336
330
2FE
100
AcDbEntity
  8
A
  6
Symbol_C
 62
     4
370
    25
100
AcDbCircle
 10
29.64285564422608
 20
-53.35713639032292
 30
0.0
 40
0.9880989574248816
  0
CIRCLE
  5
337
330
2FE
100
AcDbEntity
  8
A
  6
Symbol_C
 62
     4
370
    25
100
AcDbCircle
 10
9.880951881408693
 20
-53.35713639032292
 30
0.0
 40
0.9880989574248816
  0
LINE
  5
338
330
2FE
100
AcDbEntity
  8
A
  6
Moyen
 62
     4
370
    25
100
AcDbLine
 10
29.64285564422608
 20
-6.916667966047837
 30
0.0
 11
29.64285564422608
 21
-9.880951292458064
 31
0.0
  0
LINE
  5
339
330
2FE
100
AcDbEntity
  8
A
  6
Moyen
 62
     4
370
    25
100
AcDbLine
 10
27.1726176738739
 20
-9.880951292458064
 30
0.0
 11
32.11309361457825
 21
-9.880951292458064
 31
0.0
  0
LINE
  5
33A
330
2FE
100
AcDbEntity
  8
A
  6
Moyen
 62
     4
370
    25
100
AcDbLine
 10
28.16071663129878
 20
-10.86904612722856
 30
0.0
 11
31.12499465715337
 21
-10.86904612722856
 31
0.0
  0
LINE
  5
33B
330
2FE
100
AcDbEntity
  8
A
  6
Moyen
 62
     4
370
    25
100
AcDbLine
 10
29.1487967423036
 20
-11.85714037304842
 30
0.0
 11
30.13691454614856
 21
-11.85714037304842
 31
0.0
  0
CIRCLE
  5
33C
330
2FE
100
AcDbEntity
  8
A
  6
Symbol_C
 62
     4
370
    25
100
AcDbCircle
 10
0.0
 20
-0.98809542372112
 30
0.0
 40
0.9880989574248816
  0
CIRCLE
  5
33D
330
2FE
100
AcDbEntity
  8
A
  6
Symbol_C
 62
     4
370
    25
100
AcDbCircle
 10
9.880951881408693
 20
-0.98809542372112
 30
0.0
 40
0.9880989574248816
  0
CIRCLE
  5
33E
330
2FE
100
AcDbEntity
  8
A
  6
Symbol_C
 62
     4
370
    25
100
AcDbCircle
 10
-13.83333357629317
 20
-39.52380516983226
 30
0.0
 40
0.9880989574248816
  0
CIRCLE
  5
33F
330
2FE
100
AcDbEntity
  8
A
  6
Symbol_C
 62
     4
370
    25
100
AcDbCircle
 10
-13.83333122049066
 20
-29.64285564422608
 30
0.0
 40
0.9880989574248816
  0
CIRCLE
  5
340
330
2FE
100
AcDbEntity
  8
A
  6
Symbol_C
 62
     4
370
    25
100
AcDbCircle
 10
-13.83333122049066
 20
-9.880951881408693
 30
0.0
 40
0.9880989574248816
  0
CIRCLE
  5
341
330
2FE
100
AcDbEntity
  8
A
  6
Symbol_C
 62
     4
370
    25
100
AcDbCircle
 10
138.3333263397217
 20
-53.35713639032292
 30
0.0
 40
0.9880989574248816
  0
CIRCLE
  5
342
330
2FE
100
AcDbEntity
  8
A
  6
Symbol_C
 62
     4
370
    25
100
AcDbCircle
 10
148.2142782211304
 20
-53.35713639032292
 30
0.0
 40
0.9880989574248816
  0
CIRCLE
  5
343
330
2FE
100
AcDbEntity
  8
A
  6
Symbol_C
 62
     4
370
    25
100
AcDbCircle
 10
177.8571338653564
 20
-53.35713639032292
 30
0.0
 40
0.9880989574248816
  0
CIRCLE
  5
344
330
2FE
100
AcDbEntity
  8
A
  6
Symbol_C
 62
     4
370
    25
100
AcDbCircle
 10
192.6785616874695
 20
-53.35713639032292
 30
0.0
 40
0.9880989574248816
  0
CIRCLE
  5
345
330
2FE
100
AcDbEntity
  8
A
  6
Symbol_C
 62
     4
370
    25
100
AcDbCircle
 10
207.4999895095825
 20
-53.35713639032292
 30
0.0
 40
0.9880989574248816
  0
CIRCLE
  5
346
330
2FE
100
AcDbEntity
  8
A
  6
Symbol_C
 62
     4
370
    25
100
AcDbCircle
 10
222.3214173316955
 20
-53.35713639032292
 30
0.0
 40
0.9880989574248816
  0
CIRCLE
  5
347
330
2FE
100
AcDbEntity
  8
A
  6
Symbol_C
 62
     4
370
    25
100
AcDbCircle
 10
251.9642729759216
 20
-53.35713639032292
 30
0.0
 40
0.9880989574248816
  0
CIRCLE
  5
348
330
2FE
100
AcDbEntity
  8
A
  6
Symbol_C
 62
     4
370
    25
100
AcDbCircle
 10
266.7857007980347
 20
-53.35713639032292
 30
0.0
 40
0.9880801110048196
  0
CIRCLE
  5
349
330
2FE
100
AcDbEntity
  8
A
  6
Symbol_C
 62
     4
370
    25
100
AcDbCircle
 10
113.6309466361999
 20
-1.482141368729799
 30
0.0
 40
0.9880989574248816
  0
CIRCLE
  5
34A
330
2FE
100
AcDbEntity
  8
A
  6
Symbol_C
 62
     4
370
    25
100
AcDbCircle
 10
128.452374458313
 20
-1.482141368729799
 30
0.0
 40
0.9880989574248816
  0
CIRCLE
  5
34B
330
2FE
100
AcDbEntity
  8
A
  6
Symbol_C
 62
     4
370
    25
100
AcDbCircle
 10
143.273802280426
 20
-1.482141368729799
 30
0.0
 40
0.9880989574248816
  0
CIRCLE
  5
34C
330
2FE
100
AcDbEntity
  8
A
  6
Symbol_C
 62
     4
370
    25
100
AcDbCircle
 10
158.0952301025391
 20
-1.482141368729799
 30
0.0
 40
0.9880989574248816
  0
CIRCLE
  5
34D
330
2FE
100
AcDbEntity
  8
A
  6
Symbol_C
 62
     4
370
    25
100
AcDbCircle
 10
172.9166579246521
 20
-1.482141368729799
 30
0.0
 40
0.9880989574248816
  0
CIRCLE
  5
34E
330
2FE
100
AcDbEntity
  8
A
  6
Symbol_C
 62
     4
370
    25
100
AcDbCircle
 10
187.7380857467651
 20
-1.482141368729799
 30
0.0
 40
0.9880989574248816
  0
CIRCLE
  5
34F
330
2FE
100
AcDbEntity
  8
A
  6
Symbol_C
 62
     4
370
    25
100
AcDbCircle
 10
202.5595135688782
 20
-1.482141368729799
 30
0.0
 40
0.9880989574248816
  0
CIRCLE
  5
350
330
2FE
100
AcDbEntity
  8
A
  6
Symbol_C
 62
     4
370
    25
100
AcDbCircle
 10
232.2023692131041
 20
-1.482141368729799
 30
0.0
 40
0.9880801110048196
  0
CIRCLE
  5
351
330
2FE
100
AcDbEntity
  8
A
  6
Symbol_C
 62
     4
370
    25
100
AcDbCircle
 10
266.7857007980347
 20
-0.9880938041068958
 30
0.0
 40
0.9880801110048196
  0
TEXT
  5
352
330
2FE
100
AcDbEntity
  8
A
  6
Fin
 62
     1
370
    15
100
AcDbText
 10
130.1810434920698
 20
-45.57588772603457
 30
0.0
 40
2.133226932968411
  1
Px1
 41
0.9659999561309811
  7
Arial
100
AcDbText
  0
TEXT
  5
353
330
2FE
100
AcDbEntity
  8
A
  6
Fin
 62
     1
370
    15
100
AcDbText
 10
36.80658486456901
 20
-11.23958323626289
 30
0.0
 40
2.133226932968411
  1
Px3
 41
0.9659999561309811
  7
Arial
100
AcDbText
  0
TEXT
  5
354
330
2FE
100
AcDbEntity
  8
A
  6
Fin
 62
     1
370
    15
100
AcDbText
 10
105.2321526141386
 20
-11.23958323626289
 30
0.0
 40
2.133226932968411
  1
Px2
 41
0.9659999561309811
  7
Arial
100
AcDbText
  0
CIRCLE
  5
355
330
2FE
100
AcDbEntity
  8
A
  6
Symbol_C
 62
     4
370
    25
100
AcDbCircle
 10
-13.83333122049066
 20
-19.76190376281738
 30
0.0
 40
0.9880989574248816
  0
CIRCLE
  5
356
330
2FE
100
AcDbEntity
  8
A
  6
Symbol_C
 62
     4
370
    25
100
AcDbCircle
 10
44.4642834663391
 20
-1.235118985176084
 30
0.0
 40
0.9880989574248816
  0
CIRCLE
  5
357
330
2FE
100
AcDbEntity
  8
A
  6
Symbol_C
 62
     4
370
    25
100
AcDbCircle
 10
54.34523534774779
 20
-1.235118985176084
 30
0.0
 40
0.9880989574248816
  0
CIRCLE
  5
358
330
2FE
100
AcDbEntity
  8
A
  6
Symbol_C
 62
     4
370
    25
100
AcDbCircle
 10
64.22618722915649
 20
-1.235118985176084
 30
0.0
 40
0.9880989574248816
  0
CIRCLE
  5
359
330
2FE
100
AcDbEntity
  8
A
  6
Symbol_C
 62
     4
370
    25
100
AcDbCircle
 10
74.10713911056518
 20
-1.235118985176084
 30
0.0
 40
0.9880989574248816
  0
LINE
  5
35A
330
2FE
100
AcDbEntity
  8
A
  6
Moyen
 62
     4
370
    25
100
AcDbLine
 10
269.2559387683868
 20
-9.880951881408693
 30
0.0
 11
269.2559387683868
 21
-7.410713911056517
 31
0.0
  0
LINE
  5
35B
330
2FE
100
AcDbEntity
  8
A
  6
Moyen
 62
     4
370
    25
100
AcDbLine
 10
111.1607086658477
 20
-7.410713911056517
 30
0.0
 11
111.1607086658477
 21
-9.880951881408693
 31
0.0
  0
LINE
  5
35C
330
2FE
100
AcDbEntity
  8
A
  6
Moyen
 62
     4
370
    25
100
AcDbLine
 10
111.1607086658477
 20
-9.880951881408693
 30
0.0
 11
269.2559387683868
 21
-9.880951881408693
 31
0.0
  0
LINE
  5
35D
330
2FE
100
AcDbEntity
  8
A
  6
Moyen
 62
     4
370
    25
100
AcDbLine
 10
135.8630883693695
 20
-44.4642834663391
 30
0.0
 11
135.8630883693695
 21
-46.93452143669128
 31
0.0
  0
LINE
  5
35E
330
2FE
100
AcDbEntity
  8
A
  6
Moyen
 62
     4
370
    25
100
AcDbLine
 10
135.8630883693695
 20
-44.4642834663391
 30
0.0
 11
269.2559387683868
 21
-44.4642834663391
 31
0.0
  0
LINE
  5
35F
330
2FE
100
AcDbEntity
  8
A
  6
Moyen
 62
     4
370
    25
100
AcDbLine
 10
269.2559387683868
 20
-44.4642834663391
 30
0.0
 11
269.2559387683868
 21
-46.93452143669128
 31
0.0
  0
CIRCLE
  5
360
330
2FE
100
AcDbEntity
  8
A
  6
Symbol_C
 62
     4
370
    25
100
AcDbCircle
 10
281.6071286201477
 20
-1.23512016307734
 30
0.0
 40
0.9880801110048196
  0
CIRCLE
  5
361
330
2FE
100
AcDbEntity
  8
A
  6
Symbol_C
 62
     4
370
    25
100
AcDbCircle
 10
281.6071286201477
 20
-53.35713639032292
 30
0.0
 40
0.9880801110048196
  0
LINE
  5
362
330
2FE
100
AcDbEntity
  8
A
  6
Moyen
 62
     4
370
    25
100
AcDbLine
 10
29.64285564422608
 20
-44.4642834663391
 30
0.0
 11
29.64285564422608
 21
-47.4285662037987
 31
0.0
  0
LINE
  5
363
330
2FE
100
AcDbEntity
  8
A
  6
Moyen
 62
     4
370
    25
100
AcDbLine
 10
27.1726176738739
 20
-47.4285662037987
 30
0.0
 11
32.11309361457825
 21
-47.4285662037987
 31
0.0
  0
LINE
  5
364
330
2FE
100
AcDbEntity
  8
A
  6
Moyen
 62
     4
370
    25
100
AcDbLine
 10
28.16071663129878
 20
-48.41666044961858
 30
0.0
 11
31.12499465715337
 21
-48.41666044961858
 31
0.0
  0
LINE
  5
365
330
2FE
100
AcDbEntity
  8
A
  6
Moyen
 62
     4
370
    25
100
AcDbLine
 10
29.1487967423036
 20
-49.40475469543844
 30
0.0
 11
30.13691454614856
 21
-49.40475469543844
 31
0.0
  0
LWPOLYLINE
  5
366
330
2FE
100
AcDbEntity
  8
A
  6
Moyen
 62
     4
370
    25
100
AcDbPolyline
 90
        5
 70
     0
 43
0.0
 10
-14.82142782211304
 20
0.0
 10
286.5476045608521
 20
0.0
 10
286.5476045608521
 20
-54.34523534774779
 10
-14.82142782211304
 20
-54.34523534774779
 10
-14.82142782211304
 20
0.0
  0
LINE
  5
36D
330
2FE
100
AcDbEntity
  8
A
  6
Moyen
 62
     4
370
    25
100
AcDbLine
 10
281.1130508718052
 20
-9.880947169803675
 30
0.0
 11
282.1012063684902
 21
-9.880947169803675
 31
0.0
  0
LINE
  5
36E
330
2FE
100
AcDbEntity
  8
A
  6
Moyen
 62
     4
370
    25
100
AcDbLine
 10
280.1249707608004
 20
-8.892852923983806
 30
0.0
 11
283.0892864794951
 21
-8.892852923983806
 31
0.0
  0
LINE
  5
36F
330
2FE
100
AcDbEntity
  8
A
  6
Moyen
 62
     4
370
    25
100
AcDbLine
 10
279.1368906497955
 20
-7.904758678163942
 30
0.0
 11
284.0773665904999
 21
-7.904758678163942
 31
0.0
  0
LINE
  5
370
330
2FE
100
AcDbEntity
  8
A
  6
Moyen
 62
     4
370
    25
100
AcDbLine
 10
281.6071286201477
 20
-4.940473584901837
 30
0.0
 11
281.6071286201477
 21
-7.904758678163942
 31
0.0
  0
LINE
  5
371
330
2FE
100
AcDbEntity
  8
A
  6
Moyen
 62
     4
370
    25
100
AcDbLine
 10
281.6071286201477
 20
-42.73512442566061
 30
0.0
 11
281.6071286201477
 21
-45.69941187472521
 31
0.0
  0
LINE
  5
372
330
2FE
100
AcDbEntity
  8
A
  6
Moyen
 62
     4
370
    25
100
AcDbLine
 10
279.1368906497955
 20
-45.69941187472521
 30
0.0
 11
284.0773665904999
 21
-45.69941187472521
 31
0.0
  0
LINE
  5
373
330
2FE
100
AcDbEntity
  8
A
  6
Moyen
 62
     4
370
    25
100
AcDbLine
 10
280.1249707608004
 20
-46.68750140894005
 30
0.0
 11
283.0892864794951
 21
-46.68750140894005
 31
0.0
  0
LINE
  5
374
330
2FE
100
AcDbEntity
  8
A
  6
Moyen
 62
     4
370
    25
100
AcDbLine
 10
281.1130508718052
 20
-47.67560036636496
 30
0.0
 11
282.1012063684902
 21
-47.67560036636496
 31
0.0
  0
TEXT
  5
375
330
2FE
100
AcDbEntity
  8
A
  6
Fin
 62
     1
370
    15
100
AcDbText
 10
47.37358113712818
 20
-8.6297820979388
 30
0.0
 40
1.640943794591084
  1
RL1
 41
0.9659999561309811
  7
Arial
 72
     4
 11
49.40475940704345
 21
-7.805952198335091
 31
0.0
100
AcDbText
  0
TEXT
  5
376
330
2FE
100
AcDbEntity
  8
A
  6
Fin
 62
     1
370
    15
100
AcDbText
 10
67.13548489994557
 20
-8.6297820979388
 30
0.0
 40
1.640943794591084
  1
RL2
 41
0.9659999561309811
  7
Arial
 72
     4
 11
69.16666316986084
 21
-7.805952198335091
 31
0.0
100
AcDbText
  0
TEXT
  5
377
330
2FE
100
AcDbEntity
  8
A
  6
Fin
 62
     1
370
    15
100
AcDbText
 10
127.6518465462118
 20
-8.995502436213358
 30
0.0
 40
2.133226932968411
  1
2
 41
0.9659999561309811
  7
Arial
 72
     4
 11
128.4523697467079
 21
-7.924523566728535
 31
0.0
100
AcDbText
  0
TEXT
  5
378
330
2FE
100
AcDbEntity
  8
A
  6
Fin
 62
     1
370
    15
100
AcDbText
 10
112.8304187240988
 20
-8.995502436213358
 30
0.0
 40
2.133226932968411
  1
1
 41
0.9659999561309811
  7
Arial
 72
     4
 11
113.6309419245949
 21
-7.924523566728535
 31
0.0
100
AcDbText
  0
TEXT
  5
379
330
2FE
100
AcDbEntity
  8
A
  6
Fin
 62
     1
370
    15
100
AcDbText
 10
142.4732743683249
 20
-8.991137033212741
 30
0.0
 40
2.133226932968411
  1
4
 41
0.9659999561309811
  7
Arial
 72
     4
 11
143.273797568821
 21
-7.924523566728535
 31
0.0
100
AcDbText
  0
TEXT
  5
37A
330
2FE
100
AcDbEntity
  8
A
  6
Fin
 62
     1
370
    15
100
AcDbText
 10
157.294711613648
 20
-8.95839651070811
 30
0.0
 40
2.133226932968411
  1
5
 41
0.9659999561309811
  7
Arial
 72
     4
 11
158.0952348141441
 21
-7.924523566728535
 31
0.0
100
AcDbText
  0
TEXT
  5
37B
330
2FE
100
AcDbEntity
  8
A
  6
Fin
 62
     1
370
    15
100
AcDbText
 10
172.1161347241561
 20
-8.977313257044119
 30
0.0
 40
2.133226932968411
  1
7
 41
0.9659999561309811
  7
Arial
 72
     4
 11
172.9166579246521
 21
-7.924523566728535
 31
0.0
100
AcDbText
  0
TEXT
  5
37C
330
2FE
100
AcDbEntity
  8
A
  6
Fin
 62
     1
370
    15
100
AcDbText
 10
201.7589903683822
 20
-8.977313257044119
 30
0.0
 40
2.133226932968411
  1
9
 41
0.9659999561309811
  7
Arial
 72
     4
 11
202.5595135688782
 21
-7.924523566728535
 31
0.0
100
AcDbText
  0
TEXT
  5
37D
330
2FE
100
AcDbEntity
  8
A
  6
Fin
 62
     1
370
    15
100
AcDbText
 10
186.9375625462691
 20
-8.977313257044119
 30
0.0
 40
2.133226932968411
  1
8
 41
0.9659999561309811
  7
Arial
 72
     4
 11
187.7380857467651
 21
-7.924523566728535
 31
0.0
100
AcDbText
  0
TEXT
  5
37E
330
2FE
100
AcDbEntity
  8
A
  6
Fin
 62
     1
370
    15
100
AcDbText
 10
231.4018460126081
 20
-8.976585689877349
 30
0.0
 40
2.133226932968411
  1
3
 41
0.9659999561309811
  7
Arial
 72
     4
 11
232.2023692131041
 21
-7.924523566728535
 31
0.0
100
AcDbText
  0
TEXT
  5
37F
330
2FE
100
AcDbEntity
  8
A
  6
Fin
 62
     1
370
    15
100
AcDbText
 10
265.9851775975387
 20
-8.977313257044119
 30
0.0
 40
2.133226932968411
  1
6
 41
0.9659999561309811
  7
Arial
 72
     4
 11
266.7857007980347
 21
-7.924523566728535
 31
0.0
100
AcDbText
  0
LWPOLYLINE
  5
380
330
2FE
100
AcDbEntity
  8
A
  6
Fin
 62
     7
370
    15
100
AcDbPolyline
 90
        8
 70
     0
 43
0.0
 10
279.1368906497955
 20
-26.43154816741026
 10
279.1368906497955
 20
-21.98512170541835
 10
280.6190485091429
 20
-21.98512170541835
 10
280.6190485091429
 20
-20.50298269249106
 10
282.5952087311525
 20
-20.50298269249106
 10
282.5952087311525
 20
-21.98512170541835
 10
284.0773665904999
 20
-21.98512170541835
 10
284.0773665904999
 20
-26.43154816741026
  0
LWPOLYLINE
  5
38A
330
2FE
100
AcDbEntity
  8
A
  6
Fin
 62
     7
370
    15
100
AcDbPolyline
 90
        8
 70
     0
 43
0.0
 10
278.6428505942931
 20
-26.9255976461227
 10
278.6428505942931
 20
-21.49107222670591
 10
280.1249707608004
 20
-21.49107222670591
 10
280.1249707608004
 20
-20.00893321377862
 10
283.0892864794951
 20
-20.00893321377862
 10
283.0892864794951
 20
-21.49107222670591
 10
284.5714066460023
 20
-21.49107222670591
 10
284.5714066460023
 20
-26.9255976461227
  0
LINE
  5
394
330
2FE
100
AcDbEntity
  8
A
  6
Fin
 62
     7
370
    15
100
AcDbLine
 10
279.1368906497955
 20
-26.43154816741026
 30
0.0
 11
284.0773665904999
 21
-26.43154816741026
 31
0.0
  0
LINE
  5
395
330
2FE
100
AcDbEntity
  8
A
  6
Fin
 62
     7
370
    15
100
AcDbLine
 10
284.5714066460023
 20
-26.9255976461227
 30
0.0
 11
278.6428505942931
 21
-26.9255976461227
 31
0.0
  0
TEXT
  5
396
330
2FE
100
AcDbEntity
  8
A
  6
Fin
 62
     1
370
    15
100
AcDbText
 10
137.5327984276205
 20
-47.26600209197811
 30
0.0
 40
2.133226932968411
  1
9
 41
0.9659999561309811
  7
Arial
 72
     4
 11
138.3333216281166
 21
-46.21321240166253
 31
0.0
100
AcDbText
  0
TEXT
  5
397
330
2FE
100
AcDbEntity
  8
A
  6
Fin
 62
     1
370
    15
100
AcDbText
 10
146.6132318201383
 20
-47.26600209197811
 30
0.0
 40
2.133226932968411
  1
10
 41
0.9659999561309811
  7
Arial
 72
     4
 11
148.2142782211304
 21
-46.21321240166253
 31
0.0
100
AcDbText
  0
TEXT
  5
398
330
2FE
100
AcDbEntity
  8
A
  6
Fin
 62
     1
370
    15
100
AcDbText
 10
162.2351828427474
 20
-47.26527452481135
 30
0.0
 40
2.133226932968411
  1
3
 41
0.9659999561309811
  7
Arial
 72
     4
 11
163.0357060432434
 21
-46.21321240166253
 31
0.0
100
AcDbText
  0
TEXT
  5
399
330
2FE
100
AcDbEntity
  8
A
  6
Fin
 62
     1
370
    15
100
AcDbText
 10
177.0566106648604
 20
-47.28419127114736
 30
0.0
 40
2.133226932968411
  1
1
 41
0.9659999561309811
  7
Arial
 72
     4
 11
177.8571338653564
 21
-46.21321240166253
 31
0.0
100
AcDbText
  0
TEXT
  5
39A
330
2FE
100
AcDbEntity
  8
A
  6
Fin
 62
     1
370
    15
100
AcDbText
 10
191.8780384869734
 20
-47.28419127114736
 30
0.0
 40
2.133226932968411
  1
2
 41
0.9659999561309811
  7
Arial
 72
     4
 11
192.6785616874695
 21
-46.21321240166253
 31
0.0
100
AcDbText
  0
TEXT
  5
39B
330
2FE
100
AcDbEntity
  8
A
  6
Fin
 62
     1
370
    15
100
AcDbText
 10
221.5208941311995
 20
-47.27982586814674
 30
0.0
 40
2.133226932968411
  1
4
 41
0.9659999561309811
  7
Arial
 72
     4
 11
222.3214173316955
 21
-46.21321240166253
 31
0.0
100
AcDbText
  0
TEXT
  5
39C
330
2FE
100
AcDbEntity
  8
A
  6
Fin
 62
     1
370
    15
100
AcDbText
 10
251.1637497754256
 20
-47.26600209197811
 30
0.0
 40
2.133226932968411
  1
7
 41
0.9659999561309811
  7
Arial
 72
     4
 11
251.9642729759216
 21
-46.21321240166253
 31
0.0
100
AcDbText
  0
TEXT
  5
39D
330
2FE
100
AcDbEntity
  8
A
  6
Fin
 62
     1
370
    15
100
AcDbText
 10
265.9851775975387
 20
-47.26600209197811
 30
0.0
 40
2.133226932968411
  1
8
 41
0.9659999561309811
  7
Arial
 72
     4
 11
266.7857007980347
 21
-46.21321240166253
 31
0.0
100
AcDbText
  0
LINE
  5
39E
330
2FE
100
AcDbEntity
  8
A
  6
Moyen
 62
     4
370
    25
100
AcDbLine
 10
46.93453085990131
 20
-12.59821341321583
 30
0.0
 11
44.4642834663391
 21
-12.59821341321583
 31
0.0
  0
LINE
  5
39F
330
2FE
100
AcDbEntity
  8
A
  6
Moyen
 62
     4
370
    25
100
AcDbLine
 10
44.4642834663391
 20
-7.163691527502805
 30
0.0
 11
44.4642834663391
 21
-12.59821812482085
 31
0.0
  0
LINE
  5
3A0
330
2FE
100
AcDbEntity
  8
A
  6
Moyen
 62
     4
370
    25
100
AcDbLine
 10
54.34523534774779
 20
-7.163689171700297
 30
0.0
 11
54.34523534774779
 21
-12.35118867385961
 31
0.0
  0
LINE
  5
3A1
330
2FE
100
AcDbEntity
  8
A
  6
Moyen
 62
     4
370
    25
100
AcDbLine
 10
54.34523534774779
 20
-12.35118867385961
 30
0.0
 11
52.12201740514682
 21
-12.35118867385961
 31
0.0
  0
LINE
  5
3A2
330
2FE
100
AcDbEntity
  8
A
  6
Moyen
 62
     4
370
    25
100
AcDbLine
 10
46.93454028311134
 20
-12.59821341321583
 30
0.0
 11
52.3690562793181
 21
-15.068451383568
 31
0.0
  0
LINE
  5
3A3
330
2FE
100
AcDbEntity
  8
A
  6
Moyen
 62
     4
370
    25
100
AcDbLine
 10
66.69643462271871
 20
-12.59821341321583
 30
0.0
 11
64.22618722915649
 21
-12.59821341321583
 31
0.0
  0
LINE
  5
3A4
330
2FE
100
AcDbEntity
  8
A
  6
Moyen
 62
     4
370
    25
100
AcDbLine
 10
64.22618722915649
 20
-7.163691527502805
 30
0.0
 11
64.22618722915649
 21
-12.59821812482085
 31
0.0
  0
LINE
  5
3A5
330
2FE
100
AcDbEntity
  8
A
  6
Moyen
 62
     4
370
    25
100
AcDbLine
 10
74.10713911056518
 20
-7.163689171700297
 30
0.0
 11
74.10713911056518
 21
-12.35118867385961
 31
0.0
  0
LINE
  5
3A6
330
2FE
100
AcDbEntity
  8
A
  6
Moyen
 62
     4
370
    25
100
AcDbLine
 10
74.10713911056518
 20
-12.35118867385961
 30
0.0
 11
71.8839211679642
 21
-12.35118867385961
 31
0.0
  0
LINE
  5
3A7
330
2FE
100
AcDbEntity
  8
A
  6
Moyen
 62
     4
370
    25
100
AcDbLine
 10
66.69644404592872
 20
-12.59821341321583
 30
0.0
 11
72.13096004213548
 21
-15.068451383568
 31
0.0
  0
CIRCLE
  5
3A8
330
2FE
100
AcDbEntity
  8
A
  6
Symbol_C
 62
     4
370
    25
100
AcDbCircle
 10
163.0357060432434
 20
-53.35713639032292
 30
0.0
 40
0.9880989574248816
  0
TEXT
  5
3A9
330
2FE
100
AcDbEntity
  8
A
  6
Fin
 62
     1
370
    15
100
AcDbText
 10
206.6994663090865
 20
-47.2470853456421
 30
0.0
 40
2.133226932968411
  1
5
 41
0.9659999561309811
  7
Arial
 72
     4
 11
207.4999895095825
 21
-46.21321240166253
 31
0.0
100
AcDbText
  0
CIRCLE
  5
3AA
330
2FE
100
AcDbEntity
  8
A
  6
Symbol_C
 62
     4
370
    25
100
AcDbCircle
 10
237.1428451538086
 20
-53.35713639032292
 30
0.0
 40
0.9880989574248816
  0
TEXT
  5
3AB
330
2FE
100
AcDbEntity
  8
A
  6
Fin
 62
     1
370
    15
100
AcDbText
 10
236.3423219533125
 20
-47.26600209197811
 30
0.0
 40
2.133226932968411
  1
6
 41
0.9659999561309811
  7
Arial
 72
     4
 11
237.1428451538086
 21
-46.21321240166253
 31
0.0
100
AcDbText
  0
ENDBLK
  5
3AD
330
2FE
100
AcDbEntity
  8
0
100
AcDbBlockEnd
  0
ENDSEC
  0
SECTION
  2
ENTITIES
  0
INSERT
  5
2DE
330
1F
100
AcDbEntity
  8
A
  6
Fin
 62
     0
370
    15
100
AcDbBlockReference
  2
1
 10
0.0
 20
0.0
 30
0.0
  0
TEXT
  5
2DF
330
1F
100
AcDbEntity
  8
B
  6
Fin
 62
     1
370
    15
100
AcDbText
 10
195.0
 20
2.5
 30
0.0
 40
2.657142857142857
  1
Document n° :
 41
0.9659999561309811
  7
Arial
100
AcDbText
  0
TEXT
  5
2E1
330
1F
100
AcDbEntity
  8
B
  6
Fin
 62
     1
370
    15
100
AcDbText
 10
403.4653157489747
 20
16.52289219426727
 30
0.0
 40
1.99285714285714
  1
FOLIO
 41
0.9659999561309811
  7
Arial
 72
     4
 11
407.500015258789
 21
17.52000045776367
 31
0.0
100
AcDbText
  0
TEXT
  5
2E3
330
1F
100
AcDbEntity
  8
A
  6
Fin
 62
     3
370
    15
100
AcDbText
 10
222.5
 20
2.25
 30
0.0
 40
2.989285714285712
  1
TH 
 41
1.207499945163725
  7
Arial_BOLD
100
AcDbText
  0
TEXT
  5
2E4
330
1F
100
AcDbEntity
  8
A
  6
Fin
 62
     2
370
    15
100
AcDbText
 10
222.5396357288021
 20
12.53815365711212
 30
0.0
 40
3.321428571428571
  1
NUMERO
 41
0.9659999561309811
  7
Arial
 72
     4
 11
232.4999923706055
 21
14.20000076293945
 31
0.0
100
AcDbText
  0
TEXT
  5
2E5
330
1F
100
AcDbEntity
  8
A
  6
Fin
 62
     2
370
    15
100
AcDbText
 10
323.9157929658508
 20
13.5404192973382
 30
0.0
 40
3.321428571428571
  1
TYPE VAR
 41
0.9659999561309811
  7
Arial
 72
     4
 11
335.0
 21
15.20000076293945
 31
0.0
100
AcDbText
  0
TEXT
  5
2E6
330
1F
100
AcDbEntity
  8
A
  6
Fin
 62
     7
370
    15
100
AcDbText
 10
307.6038760053971
 20
7.530521972015386
 30
0.0
 40
2.657142857142857
  1
PUISSANCE POWERDRIVE MD2
 41
0.9659999561309811
  7
Arial
 72
     4
 11
335.0
 21
8.859999656677246
 31
0.0
100
AcDbText
  0
TEXT
  5
2E7
330
1F
100
AcDbEntity
  8
A
  6
Fin
 62
     4
370
    15
100
AcDbText
 10
404.1346863567855
 20
10.07297111757315
 30
0.0
 40
3.985714285714285
  1
01
 41
1.086749950647353
  7
Arial
 72
     4
 11
407.5
 21
12.03999996185302
 31
0.0
100
AcDbText
  0
TEXT
  5
2E8
330
1F
100
AcDbEntity
  8
B
  6
Fin
 62
     1
370
    15
100
AcDbText
 10
72.0
 20
17.5
 30
0.0
 40
1.328571428571426
  1
VERIFIE :
 41
0.9659999561309811
  7
Arial
100
AcDbText
  0
TEXT
  5
2E9
330
1F
100
AcDbEntity
  8
B
  6
Fin
 62
     1
370
    15
100
AcDbText
 10
72.0
 20
11.0
 30
0.0
 40
1.328571428571426
  1
APPROUVE :
 41
0.9659999561309811
  7
Arial
100
AcDbText
  0
TEXT
  5
2EA
330
1F
100
AcDbEntity
  8
B
  6
Fin
 62
     1
370
    15
100
AcDbText
 10
72.0
 20
4.25
 30
0.0
 40
1.328571428571426
  1
DATE DE CREATION :
 41
0.9659999561309811
  7
Arial
100
AcDbText
  0
TEXT
  5
2EB
330
1F
100
AcDbEntity
  8
B
  6
Fin
 62
     1
370
    15
100
AcDbText
 10
110.9617738760379
 20
1.265714114052909
 30
0.0
 40
1.328571428571426
  1
INDICE
 41
0.9659999561309811
  7
Arial
 72
     4
 11
114.0
 21
1.929999828338623
 31
0.0
100
AcDbText
  0
TEXT
  5
2EC
330
1F
100
AcDbEntity
  8
B
  6
Fin
 62
     1
370
    15
100
AcDbText
 10
122.6091680433269
 20
1.265714114052909
 30
0.0
 40
1.328571428571426
  1
DATE
 41
0.9659999561309811
  7
Arial
 72
     4
 11
125.0000038146972
 21
1.929999828338623
 31
0.0
100
AcDbText
  0
TEXT
  5
2ED
330
1F
100
AcDbEntity
  8
B
  6
Fin
 62
     1
370
    15
100
AcDbText
 10
149.4761885741019
 20
1.265260986007694
 30
0.0
 40
1.328571428571426
  1
MODIFICATION
 41
0.9659999561309811
  7
Arial
 72
     4
 11
155.9999923706054
 21
1.929999828338623
 31
0.0
100
AcDbText
  0
TEXT
  5
2EE
330
1F
100
AcDbEntity
  8
B
  6
Fin
 62
     1
370
    15
100
AcDbText
 10
182.9076904087972
 20
1.265714114052909
 30
0.0
 40
1.328571428571426
  1
DES.
 41
0.9659999561309811
  7
Arial
 72
     4
 11
185.0
 21
1.929999828338623
 31
0.0
100
AcDbText
  0
TEXT
  5
2EF
330
1F
100
AcDbEntity
  8
B
  6
Fin
 62
     1
370
    15
100
AcDbText
 10
396.5
 20
0.9500000476837158
 30
0.0
 40
1.727142857142857
  1
Logiciel SEE
 41
0.9659999561309811
  7
Arial
100
AcDbText
  0
TEXT
  5
2F0
330
1F
100
AcDbEntity
  8
A
  6
Fin
 62
     4
370
    15
100
AcDbText
 10
414.25
 20
0.9500000476837158
 30
0.0
 40
1.727142857142857
  1
3.70
 41
0.9659999561309811
  7
Arial
100
AcDbText
  0
TEXT
  5
2F1
330
1F
100
AcDbEntity
  8
B
  6
Fin
 62
     1
370
    15
100
AcDbText
 10
411.2499999999998
 20
0.9500000476837158
 30
0.0
 40
1.727142857142857
  1
v.
 41
0.9659999561309811
  7
Arial
100
AcDbText
  0
TEXT
  5
2F2
330
1F
100
AcDbEntity
  8
A
  6
Fin
 62
     4
370
    15
100
AcDbText
 10
400.0
 20
5.5
 30
0.0
 40
2.657142857142857
  1
01
 41
0.9659999561309811
  7
Arial
100
AcDbText
  0
TEXT
  5
2F3
330
1F
100
AcDbEntity
  8
A
  6
Fin
 62
     4
370
    15
100
AcDbText
 10
411.0114801265606
 20
5.5
 30
0.0
 40
2.657142857142857
  1
02
 41
0.9659999561309811
  7
Arial
 72
     2
 11
415.0
 21
5.5
 31
0.0
100
AcDbText
  0
TEXT
  5
2F4
330
1F
100
AcDbEntity
  8
A
  6
Fin
 62
     7
370
    15
100
AcDbText
 10
4.999999046325683
 20
21.25
 30
0.0
 40
2.989285714285712
  1
ARM1
 41
0.9659999561309811
  7
Arial
100
AcDbText
  0
TEXT
  5
2F5
330
1F
100
AcDbEntity
  8
A
  6
Fin
 62
     7
370
    15
100
AcDbText
 10
1.999999880790708
 20
26.5
 30
0.0
 40
1.99285714285714
  1
=
 41
0.9659999561309811
  7
Arial
100
AcDbText
  0
TEXT
  5
2F6
330
1F
100
AcDbEntity
  8
A
  6
Fin
 62
     7
370
    15
100
AcDbText
 10
1.999999880790708
 20
22.0
 30
0.0
 40
1.99285714285714
  1
+
 41
0.9659999561309811
  7
Arial
100
AcDbText
  0
TEXT
  5
2F7
330
1F
100
AcDbEntity
  8
B
  6
Fin
 62
     7
370
    15
100
AcDbText
 10
39.00000381469727
 20
16.25
 30
0.0
 40
0.9964285714285715
  1
Tel: (33) 05 45 64 54 54
 41
1.690499923229215
  7
Arial
100
AcDbText
  0
TEXT
  5
2F8
330
1F
100
AcDbEntity
  8
B
  6
Fin
 62
     7
370
    15
100
AcDbText
 10
39.00000381469727
 20
13.5
 30
0.0
 40
0.9964285714285715
  1
Fax: (33) 05 45 64 54 00
 41
1.690499923229215
  7
Arial
100
AcDbText
  0
TEXT
  5
2F9
330
1F
100
AcDbEntity
  8
B
  6
Fin
 62
     7
370
    15
100
AcDbText
 10
39.0
 20
10.5
 30
0.0
 40
0.9964285714285715
  1
Telex:  790244 F
 41
1.690499923229215
  7
Arial
100
AcDbText
  0
TEXT
  5
2FA
330
1F
100
AcDbEntity
  8
B
  6
Fin
 62
     7
370
    15
100
AcDbText
 10
39.0
 20
7.5
 30
0.0
 40
0.9964285714285715
  1
www.leroy-somer.com
 41
1.690499923229215
  7
Arial
100
AcDbText
  0
TEXT
  5
2FB
330
1F
100
AcDbEntity
  8
B
  6
Fin
 62
     7
370
    15
100
AcDbText
 10
417.75
 20
21.00000762939453
 30
0.0
 40
0.9964285714285715
  1
Ce plan est la propriété de MOTEURS LEROY SOMER et ne peut être reproduit ni communiqué à des tiers sans l'autorisation écrite de MOTEURS LEROY SOMER
 50
90.0
 41
1.207499945163725
  7
Arial
100
AcDbText
  0
TEXT
  5
2FC
330
1F
100
AcDbEntity
  8
B
  6
Fin
 62
     1
370
    15
100
AcDbText
 10
99.0
 20
4.341258525848386
 30
0.0
 40
1.328571428571426
  1
DESSINE :
 41
0.9659999561309811
  7
Arial
100
AcDbText
  0
TEXT
  5
2FD
330
1F
100
AcDbEntity
  8
B
  6
Fin
 62
     7
370
    15
100
AcDbText
 10
417.75
 20
246.5847797423913
 30
0.0
 40
0.9964285714285715
  1
Z:\SEE\DOSSIERS\Z_MARKETING\DWG_SYMBOLE_16072012\
 50
90.0
 41
1.207499945163725
  7
Arial
 72
     2
 11
417.75
 21
296.0
 31
0.0
100
AcDbText
  0
INSERT
  5
3AE
330
1F
100
AcDbEntity
  8
A
  6
Fin
 62
     0
370
    15
100
AcDbBlockReference
 66
     1
  2
_FX_VARIATEUR_0_4_0
 10
54.34523534774779
 20
168.2142782211303
 30
0.0
  0
ATTRIB
  5
3AF
330
3AE
100
AcDbEntity
  8
B
  6
Fin
 62
     4
370
    15
100
AcDbText
 10
54.34523534774779
 20
133.470384937411
 30
0.0
 40
2.29732131242752
  1
FAB:
 41
0.9659999561309811
  7
Arial
 11
54.34523534774779
 21
134.6190455936248
 31
0.0
100
AcDbAttribute
  2
FAB
 70
     0
 74
     2
  0
ATTRIB
  5
3B0
330
3AE
100
AcDbEntity
  8
A
  6
Fin
 62
     1
370
    15
100
AcDbText
 10
42.17478819419717
 20
152.4082841222626
 30
0.0
 40
1.969132553509303
  1
Px4
 41
0.9659999561309811
  7
Arial
 72
     4
 11
44.4642834663391
 21
153.3928503990173
 31
0.0
100
AcDbAttribute
  2
TEXT
 70
     0
 74
     2
  0
ATTRIB
  5
3B1
330
3AE
100
AcDbEntity
  8
B
  6
Fin
 62
     4
370
    15
100
AcDbText
 10
54.34523534774779
 20
129.5179985309215
 30
0.0
 40
2.29732131242752
  1
TYPE:
 41
0.9659999561309811
  7
Arial
 11
54.34523534774779
 21
130.6666591871353
 31
0.0
100
AcDbAttribute
  2
TYPE
 70
     0
 74
     2
  0
ATTRIB
  5
3B2
330
3AE
100
AcDbEntity
  8
A
  6
Fin
 62
     3
370
    15
100
AcDbText
 10
54.34523534774779
 20
140.0588606108369
 30
0.0
 40
2.953698830263953
  1
-A1
 41
0.9659999561309811
  7
Arial
 11
54.34523534774779
 21
141.5357100259689
 31
0.0
100
AcDbAttribute
  2
$ETIQUETTE
 70
     0
 74
     2
  0
ATTRIB
  5
3B3
330
3AE
100
AcDbEntity
  8
A
  6
Fin
 62
     1
370
    15
100
AcDbText
 10
52.86734636221668
 20
162.779246456404
 30
0.0
 40
1.969132553509303
  1
L1
 41
0.9659999561309811
  7
Arial
 72
     4
 11
54.34523534774779
 21
163.7678423359284
 31
0.0
100
AcDbAttribute
  2
$PL:1
 70
     0
 74
     2
  0
ATTRIB
  5
3B4
330
3AE
100
AcDbEntity
  8
A
  6
Fin
 62
     1
370
    15
100
AcDbText
 10
63.339972850651
 20
118.3190020160446
 30
0.0
 40
1.969132553509303
  1
V
 41
0.9659999561309811
  7
Arial
 72
     4
 11
64.22618722915649
 21
119.3035682927993
 31
0.0
100
AcDbAttribute
  2
$PL:10
 70
     0
 74
     2
  0
ATTRIB
  5
3B5
330
3AE
100
AcDbEntity
  8
A
  6
Fin
 62
     1
370
    15
100
AcDbText
 10
72.8530744007181
 20
118.3190020160446
 30
0.0
 40
1.969132553509303
  1
W
 41
0.9659999561309811
  7
Arial
 72
     4
 11
74.10713911056518
 21
119.3035682927993
 31
0.0
100
AcDbAttribute
  2
$PL:11
 70
     0
 74
     2
  0
ATTRIB
  5
3B6
330
3AE
100
AcDbEntity
  8
A
  6
Fin
 62
     1
370
    15
100
AcDbText
 10
82.21566223496289
 20
118.3190020160446
 30
0.0
 40
1.969132553509303
  1
PE
 41
0.9659999561309811
  7
Arial
 72
     4
 11
83.98809099197388
 21
119.3035682927993
 31
0.0
100
AcDbAttribute
  2
$PL:12
 70
     1
 74
     2
  0
ATTRIB
  5
3B7
330
3AE
100
AcDbEntity
  8
A
  6
Fin
 62
     1
370
    15
100
AcDbText
 10
229.0623416933629
 20
118.3317624248157
 30
0.0
 40
1.969132553509303
  1
+10V
 41
0.9659999561309811
  7
Arial
 72
     4
 11
232.2023692131041
 21
119.3035682927993
 31
0.0
100
AcDbAttribute
  2
$PL:13
 70
     0
 74
     2
  0
ATTRIB
  5
3B8
330
3AE
100
AcDbEntity
  8
A
  6
Fin
 62
     1
370
    15
100
AcDbText
 10
244.2555124429165
 20
118.3149724132748
 30
0.0
 40
1.969132553509303
  1
AI1+
 41
0.9659999561309811
  7
Arial
 72
     4
 11
247.0237970352173
 21
119.3035682927993
 31
0.0
100
AcDbAttribute
  2
$PL:14
 70
     0
 74
     2
  0
ATTRIB
  5
3B9
330
3AE
100
AcDbEntity
  8
A
  6
Fin
 62
     1
370
    15
100
AcDbText
 10
214.6496364616294
 20
118.3149724132748
 30
0.0
 40
1.969132553509303
  1
AI1–
 41
0.9659999561309811
  7
Arial
 72
     4
 11
217.3809413909912
 21
119.3035682927993
 31
0.0
100
AcDbAttribute
  2
$PL:15
 70
     0
 74
     2
  0
ATTRIB
  5
3BA
330
3AE
100
AcDbEntity
  8
A
  6
Fin
 62
     1
370
    15
100
AcDbText
 10
200.9343546976071
 20
118.3317624248157
 30
0.0
 40
1.969132553509303
  1
0V
 41
0.9659999561309811
  7
Arial
 72
     4
 11
202.5595135688782
 21
119.3035682927993
 31
0.0
100
AcDbAttribute
  2
$PL:16
 70
     0
 74
     2
  0
ATTRIB
  5
3BB
330
3AE
100
AcDbEntity
  8
A
  6
Fin
 62
     1
370
    15
100
AcDbText
 10
273.8983680871426
 20
118.3149724132748
 30
0.0
 40
1.969132553509303
  1
AI2+
 41
0.9659999561309811
  7
Arial
 72
     4
 11
276.6666526794434
 21
119.3035682927993
 31
0.0
100
AcDbAttribute
  2
$PL:17
 70
     0
 74
     2
  0
ATTRIB
  5
3BC
330
3AE
100
AcDbEntity
  8
A
  6
Fin
 62
     1
370
    15
100
AcDbText
 10
187.5111403662424
 20
118.3190020160446
 30
0.0
 40
1.969132553509303
  1
DI1-CTP
 41
0.9659999561309811
  7
Arial
 72
     4
 11
192.6785616874695
 21
119.3035682927993
 31
0.0
100
AcDbAttribute
  2
$PL:18
 70
     0
 74
     2
  0
ATTRIB
  5
3BD
330
3AE
100
AcDbEntity
  8
A
  6
Fin
 62
     1
370
    15
100
AcDbText
 10
304.3171478870732
 20
118.3324340252773
 30
0.0
 40
1.969132553509303
  1
AI3
 41
0.9659999561309811
  7
Arial
 72
     4
 11
306.3095083236694
 21
119.3035682927993
 31
0.0
100
AcDbAttribute
  2
$PL:19
 70
     0
 74
     2
  0
ATTRIB
  5
3BE
330
3AE
100
AcDbEntity
  8
A
  6
Fin
 62
     1
370
    15
100
AcDbText
 10
62.74829824362537
 20
162.779246456404
 30
0.0
 40
1.969132553509303
  1
L2
 41
0.9659999561309811
  7
Arial
 72
     4
 11
64.22618722915649
 21
163.7678423359284
 31
0.0
100
AcDbAttribute
  2
$PL:2
 70
     0
 74
     2
  0
ATTRIB
  5
3BF
330
3AE
100
AcDbEntity
  8
A
  6
Fin
 62
     1
370
    15
100
AcDbText
 10
318.4742393083155
 20
118.318330415583
 30
0.0
 40
1.969132553509303
  1
AO1
 41
0.9659999561309811
  7
Arial
 72
     4
 11
321.1309361457825
 21
119.3035682927993
 31
0.0
100
AcDbAttribute
  2
$PL:20
 70
     0
 74
     2
  0
ATTRIB
  5
3C0
330
3AE
100
AcDbEntity
  8
A
  6
Fin
 62
     1
370
    15
100
AcDbText
 10
334.1799352108846
 20
162.7832760591737
 30
0.0
 40
1.969132553509303
  1
PE
 41
0.9659999561309811
  7
Arial
 72
     4
 11
335.9523639678955
 21
163.7678423359284
 31
0.0
100
AcDbAttribute
  2
$PL:21
 70
     0
 74
     2
  0
ATTRIB
  5
3C1
330
3AE
100
AcDbEntity
  8
A
  6
Fin
 62
     1
370
    15
100
AcDbText
 10
180.0656561106826
 20
162.7826044587121
 30
0.0
 40
1.969132553509303
  1
DO1
 41
0.9659999561309811
  7
Arial
 72
     4
 11
182.7976098060608
 21
163.7678423359284
 31
0.0
100
AcDbAttribute
  2
$PL:22
 70
     0
 74
     2
  0
ATTRIB
  5
3C2
330
3AE
100
AcDbEntity
  8
A
  6
Fin
 62
     1
370
    15
100
AcDbText
 10
164.8361544642064
 20
162.779246456404
 30
0.0
 40
1.969132553509303
  1
+24V
 41
0.9659999561309811
  7
Arial
 72
     4
 11
167.9761819839477
 21
163.7678423359284
 31
0.0
100
AcDbAttribute
  2
$PL:23
 70
     0
 74
     2
  0
ATTRIB
  5
3C3
330
3AE
100
AcDbEntity
  8
A
  6
Fin
 62
     1
370
    15
100
AcDbText
 10
195.5514203336665
 20
162.779246456404
 30
0.0
 40
1.969132553509303
  1
DI2
 41
0.9659999561309811
  7
Arial
 72
     4
 11
197.6190376281738
 21
163.7678423359284
 31
0.0
100
AcDbAttribute
  2
$PL:24
 70
     0
 74
     2
  0
ATTRIB
  5
3C4
330
3AE
100
AcDbEntity
  8
A
  6
Fin
 62
     1
370
    15
100
AcDbText
 10
210.3728481557795
 20
162.7967080684064
 30
0.0
 40
1.969132553509303
  1
DI3
 41
0.9659999561309811
  7
Arial
 72
     4
 11
212.4404654502868
 21
163.7678423359284
 31
0.0
100
AcDbAttribute
  2
$PL:25
 70
     0
 74
     2
  0
ATTRIB
  5
3C5
330
3AE
100
AcDbEntity
  8
A
  6
Fin
 62
     1
370
    15
100
AcDbText
 10
225.1942759778926
 20
162.7832760591737
 30
0.0
 40
1.969132553509303
  1
DI4
 41
0.9659999561309811
  7
Arial
 72
     4
 11
227.2618932723999
 21
163.7678423359284
 31
0.0
100
AcDbAttribute
  2
$PL:26
 70
     0
 74
     2
  0
ATTRIB
  5
3C6
330
3AE
100
AcDbEntity
  8
A
  6
Fin
 62
     1
370
    15
100
AcDbText
 10
253.7647213968848
 20
162.779246456404
 30
0.0
 40
1.969132553509303
  1
+24V
 41
0.9659999561309811
  7
Arial
 72
     4
 11
256.904748916626
 21
163.7678423359284
 31
0.0
100
AcDbAttribute
  2
$PL:27
 70
     0
 74
     2
  0
ATTRIB
  5
3C7
330
3AE
100
AcDbEntity
  8
A
  6
Fin
 62
     1
370
    15
100
AcDbText
 10
240.0157038000056
 20
162.8000660707146
 30
0.0
 40
1.969132553509303
  1
DI5
 41
0.9659999561309811
  7
Arial
 72
     4
 11
242.0833210945129
 21
163.7678423359284
 31
0.0
100
AcDbAttribute
  2
$PL:28
 70
     0
 74
     2
  0
ATTRIB
  5
3C8
330
3AE
100
AcDbEntity
  8
A
  6
Fin
 62
     1
370
    15
100
AcDbText
 10
315.5950157271973
 20
162.7826044587121
 30
0.0
 40
1.969132553509303
  1
ST-OFF2
 41
0.9659999561309811
  7
Arial
 72
     4
 11
321.1309361457825
 21
163.7678423359284
 31
0.0
100
AcDbAttribute
  2
$PL:29
 70
     0
 74
     2
  0
ATTRIB
  5
3C9
330
3AE
100
AcDbEntity
  8
A
  6
Fin
 62
     1
370
    15
100
AcDbText
 10
72.62925012503406
 20
162.7967080684064
 30
0.0
 40
1.969132553509303
  1
L3
 41
0.9659999561309811
  7
Arial
 72
     4
 11
74.10713911056518
 21
163.7678423359284
 31
0.0
100
AcDbAttribute
  2
$PL:3
 70
     0
 74
     2
  0
ATTRIB
  5
3CA
330
3AE
100
AcDbEntity
  8
A
  6
Fin
 62
     1
370
    15
100
AcDbText
 10
281.0116841422669
 20
162.7826044587121
 30
0.0
 40
1.969132553509303
  1
ST-OFF1
 41
0.9659999561309811
  7
Arial
 72
     4
 11
286.5476045608521
 21
163.7678423359284
 31
0.0
100
AcDbAttribute
  2
$PL:30
 70
     0
 74
     2
  0
ATTRIB
  5
3CB
330
3AE
100
AcDbEntity
  8
A
  6
Fin
 62
     1
370
    15
100
AcDbText
 10
98.16294238291705
 20
162.779246456404
 30
0.0
 40
1.969132553509303
  1
1
 41
0.8452499616146088
  7
Arial
 72
     4
 11
98.80951881408691
 21
163.7678423359284
 31
0.0
100
AcDbAttribute
  2
$PL:31
 70
     0
 74
     2
  0
ATTRIB
  5
3CC
330
3AE
100
AcDbEntity
  8
A
  6
Fin
 62
     1
370
    15
100
AcDbText
 10
108.0438942643257
 20
162.779246456404
 30
0.0
 40
1.969132553509303
  1
2
 41
0.8452499616146088
  7
Arial
 72
     4
 11
108.6904706954956
 21
163.7678423359284
 31
0.0
100
AcDbAttribute
  2
$PL:32
 70
     0
 74
     2
  0
ATTRIB
  5
3CD
330
3AE
100
AcDbEntity
  8
A
  6
Fin
 62
     1
370
    15
100
AcDbText
 10
117.9248461457344
 20
162.7967080684064
 30
0.0
 40
1.969132553509303
  1
3
 41
0.8452499616146088
  7
Arial
 72
     4
 11
118.5714225769043
 21
163.7678423359284
 31
0.0
100
AcDbAttribute
  2
$PL:33
 70
     0
 74
     2
  0
ATTRIB
  5
3CE
330
3AE
100
AcDbEntity
  8
A
  6
Fin
 62
     1
370
    15
100
AcDbText
 10
127.8057980271431
 20
162.7832760591737
 30
0.0
 40
1.969132553509303
  1
4
 41
0.8452499616146088
  7
Arial
 72
     4
 11
128.452374458313
 21
163.7678423359284
 31
0.0
100
AcDbAttribute
  2
$PL:34
 70
     0
 74
     2
  0
ATTRIB
  5
3CF
330
3AE
100
AcDbEntity
  8
A
  6
Fin
 62
     1
370
    15
100
AcDbText
 10
331.9650480306373
 20
138.8219752853257
 30
0.0
 40
1.969132553509303
  1
USB B
 41
0.9659999561309811
  7
Arial
 72
     4
 11
335.9523639678955
 21
139.8065415620804
 31
0.0
100
AcDbAttribute
  2
$PL:35
 70
     0
 74
     2
  0
ATTRIB
  5
3D0
330
3AE
100
AcDbEntity
  8
B
  6
Fin
 62
     1
370
    15
100
AcDbText
 10
334.1799352108846
 20
117.8249525373322
 30
0.0
 40
1.969132553509303
  1
PE
 41
0.9659999561309811
  7
Arial
 72
     4
 11
335.9523639678955
 21
118.8095188140869
 31
0.0
100
AcDbAttribute
  2
$PL:36
 70
     0
 74
     2
  0
ATTRIB
  5
3D1
330
3AE
100
AcDbEntity
  8
B
  6
Fin
 62
     1
370
    15
100
AcDbText
 10
259.4104059974979
 20
118.3149724132748
 30
0.0
 40
1.969132553509303
  1
AI2-
 41
0.9659999561309811
  7
Arial
 72
     4
 11
261.8452248573303
 21
119.3035682927993
 31
0.0
100
AcDbAttribute
  2
$PL:37
 70
     0
 74
     2
  0
ATTRIB
  5
3D2
330
3AE
100
AcDbEntity
  8
B
  6
Fin
 62
     1
370
    15
100
AcDbText
 10
289.8629216302853
 20
118.3317624248157
 30
0.0
 40
1.969132553509303
  1
0V
 41
0.9659999561309811
  7
Arial
 72
     4
 11
291.4880805015563
 21
119.3035682927993
 31
0.0
100
AcDbAttribute
  2
$PL:38
 70
     0
 74
     2
  0
ATTRIB
  5
3D3
330
3AE
100
AcDbEntity
  8
A
  6
Fin
 62
     1
370
    15
100
AcDbText
 10
82.21567165817292
 20
162.7832760591737
 30
0.0
 40
1.969132553509303
  1
PE
 41
0.9659999561309811
  7
Arial
 72
     4
 11
83.98810041518391
 21
163.7678423359284
 31
0.0
100
AcDbAttribute
  2
$PL:4
 70
     1
 74
     2
  0
ATTRIB
  5
3D4
330
3AE
100
AcDbEntity
  8
A
  6
Fin
 62
     1
370
    15
100
AcDbText
 10
44.46427404312908
 20
128.1999538974533
 30
0.0
 40
1.969132553509303
  1
BR1
 41
0.9659999561309811
  7
Arial
 11
44.46427404312908
 21
129.184520174208
 31
0.0
100
AcDbAttribute
  2
$PL:5
 70
     0
 74
     2
  0
ATTRIB
  5
3D5
330
3AE
100
AcDbEntity
  8
A
  6
Fin
 62
     1
370
    15
100
AcDbText
 10
44.4642834663391
 20
138.080905778862
 30
0.0
 40
1.969132553509303
  1
BR2
 41
0.9659999561309811
  7
Arial
 11
44.4642834663391
 21
139.0654720556167
 31
0.0
100
AcDbAttribute
  2
$PL:6
 70
     0
 74
     2
  0
ATTRIB
  5
3D6
330
3AE
100
AcDbEntity
  8
A
  6
Fin
 62
     1
370
    15
100
AcDbText
 10
44.4642834663391
 20
147.4678081815583
 30
0.0
 40
1.969132553509303
  1
~
 41
0.9659999561309811
  7
Arial
 11
44.4642834663391
 21
148.452374458313
 31
0.0
100
AcDbAttribute
  2
$PL:7
 70
     0
 74
     2
  0
ATTRIB
  5
3D7
330
3AE
100
AcDbEntity
  8
A
  6
Fin
 62
     1
370
    15
100
AcDbText
 10
44.4642834663391
 20
157.348760062967
 30
0.0
 40
1.969132553509303
  1
~
 41
0.9659999561309811
  7
Arial
 11
44.4642834663391
 21
158.3333263397217
 31
0.0
100
AcDbAttribute
  2
$PL:8
 70
     0
 74
     2
  0
ATTRIB
  5
3D8
330
3AE
100
AcDbEntity
  8
A
  6
Fin
 62
     1
370
    15
100
AcDbText
 10
53.38571040938058
 20
118.3357920275855
 30
0.0
 40
1.969132553509303
  1
U
 41
0.9659999561309811
  7
Arial
 72
     4
 11
54.34523534774779
 21
119.3035682927993
 31
0.0
100
AcDbAttribute
  2
$PL:9
 70
     0
 74
     2
  0
ATTRIB
  5
3D9
330
3AE
100
AcDbEntity
  8
A
  6
Fin
 62
     1
370
    15
100
AcDbText
 10
64.72023670786893
 20
133.470384937411
 30
0.0
 40
2.29732131242752
  1
LEROY SOMER
 41
0.9659999561309811
  7
Arial
 11
64.72023670786893
 21
134.6190455936248
 31
0.0
100
AcDbAttribute
  2
FABRICANT
 70
     0
 74
     2
  0
ATTRIB
  5
3DA
330
3AE
100
AcDbEntity
  8
A
  6
Fin
 62
     1
370
    15
100
AcDbText
 10
64.72023199626391
 20
129.5179985309215
 30
0.0
 40
2.29732131242752
  1
POWERDRIVE MD2
 41
0.9659999561309811
  7
Arial
 11
64.72023199626391
 21
130.6666591871353
 31
0.0
100
AcDbAttribute
  2
PRODUIT
 70
     0
 74
     2
  0
ATTRIB
  5
3DB
330
3AE
100
AcDbEntity
  8
A
  6
Fin
 62
     1
370
    15
100
AcDbText
 10
54.34523534774779
 20
121.6132351411526
 30
0.0
 40
2.29732131242752
  1
@6023_LS.@62
 41
0.9659999561309811
  7
Arial
 11
54.34523534774779
 21
122.7618957973664
 31
0.0
100
AcDbAttribute
  2
SYMBOLE
 70
     1
 74
     2
  0
SEQEND
  5
3DC
330
3AE
100
AcDbEntity
  8
A
  6
Fin
 62
     0
  0
ENDSEC
  0
SECTION
  2
OBJECTS
  0
DICTIONARY
  5
C
330
0
100
AcDbDictionary
281
     1
  3
ACAD_COLOR
350
475
  3
ACAD_GROUP
350
D
  3
ACAD_LAYOUT
350
1A
  3
ACAD_MATERIAL
350
45C
  3
ACAD_MLEADERSTYLE
350
400
  3
ACAD_MLINESTYLE
350
17
  3
ACAD_PLOTSETTINGS
350
19
  3
ACAD_PLOTSTYLENAME
350
E
  3
ACAD_SCALELIST
350
89
  3
ACAD_TABLESTYLE
350
476
  3
ACAD_VISUALSTYLE
350
2A
  3
ACDB_RECOMPOSE_DATA
350
48F
  3
AcDbVariableDictionary
350
3FE
  3
DWGPROPS
350
4B3
  0
DICTIONARY
  5
481
330
10
100
AcDbDictionary
280
     1
281
     1
  3
ADSK_XREC_LAYER_RECONCILED
360
482
  0
DICTIONARY
  5
483
330
66
100
AcDbDictionary
280
     1
281
     1
  3
ADSK_XREC_LAYER_RECONCILED
360
484
  0
DICTIONARY
  5
485
330
69
100
AcDbDictionary
280
     1
281
     1
  3
ADSK_XREC_LAYER_RECONCILED
360
486
  0
DICTIONARY
  5
487
330
2E0
100
AcDbDictionary
280
     1
281
     1
  3
ADSK_XREC_LAYER_RECONCILED
360
488
  0
DICTIONARY
  5
404
330
1F
100
AcDbDictionary
280
     1
281
     1
  3
ACAD_LAYOUTSELFREF
360
453
  0
DICTIONARY
  5
406
330
1B
100
AcDbDictionary
280
     1
281
     1
  3
ACAD_LAYOUTSELFREF
360
452
  0
DICTIONARY
  5
408
330
23
100
AcDbDictionary
280
     1
281
     1
  3
ACAD_LAYOUTSELFREF
360
454
  0
DICTIONARY
  5
475
102
{ACAD_REACTORS
330
C
102
}
330
C
100
AcDbDictionary
281
     1
  0
DICTIONARY
  5
D
102
{ACAD_REACTORS
330
C
102
}
330
C
100
AcDbDictionary
281
     1
  0
DICTIONARY
  5
1A
102
{ACAD_REACTORS
330
C
102
}
330
C
100
AcDbDictionary
281
     1
  3
Layout1
350
1E
  3
Layout2
350
26
  3
Model
350
22
  0
DICTIONARY
  5
45C
102
{ACAD_REACTORS
330
C
102
}
330
C
100
AcDbDictionary
281
     1
  3
ByBlock
350
465
  3
ByLayer
350
45D
  3
Global
350
46D
  0
DICTIONARY
  5
400
102
{ACAD_REACTORS
330
C
102
}
330
C
100
AcDbDictionary
281
     1
  3
Standard
350
478
  0
DICTIONARY
  5
17
102
{ACAD_REACTORS
330
C
102
}
330
C
100
AcDbDictionary
281
     1
  3
Standard
350
18
  0
DICTIONARY
  5
19
102
{ACAD_REACTORS
330
C
102
}
330
C
100
AcDbDictionary
281
     1
  0
ACDBDICTIONARYWDFLT
  5
E
102
{ACAD_XDICTIONARY
360
44E
102
}
102
{ACAD_REACTORS
330
C
102
}
330
C
100
AcDbDictionary
281
     1
  3
Color_1
350
47B
  3
Color_7
350
47A
  3
NORMAL
350
F
100
AcDbDictionaryWithDefault
340
F
  0
DICTIONARY
  5
89
102
{ACAD_REACTORS
330
C
102
}
330
C
100
AcDbDictionary
281
     1
  3
A0
350
8A
  3
A1
350
8B
  3
A2
350
8C
  3
A3
350
8D
  3
A4
350
8E
  3
A5
350
8F
  3
A6
350
90
  3
A7
350
91
  3
A8
350
92
  3
A9
350
93
  3
B0
350
94
  3
B1
350
95
  3
B2
350
96
  3
B3
350
97
  3
B4
350
98
  3
B5
350
99
  3
B6
350
9A
  3
B7
350
9B
  3
B8
350
9C
  3
B9
350
9D
  3
C0
350
9E
  3
C1
350
9F
  3
C2
350
A0
  3
C3
350
A1
  3
C4
350
A2
  3
C5
350
A3
  3
C6
350
A4
  3
C7
350
A5
  3
C8
350
A6
  3
C9
350
A7
  3
D0
350
A8
  3
D1
350
A9
  3
D2
350
AA
  0
DICTIONARY
  5
476
102
{ACAD_REACTORS
330
C
102
}
330
C
100
AcDbDictionary
281
     1
  3
Standard
350
477
  0
DICTIONARY
  5
2A
102
{ACAD_REACTORS
330
C
102
}
330
C
100
AcDbDictionary
281
     1
  3
2dWireframe
350
2F
  3
3D Hidden
350
31
  3
3dWireframe
350
30
  3
Basic
350
32
  3
Brighten
350
36
  3
ColorChange
350
3A
  3
Conceptual
350
34
  3
Dim
350
35
  3
Facepattern
350
39
  3
Flat
350
2B
  3
FlatWithEdges
350
2C
  3
Gouraud
350
2D
  3
GouraudWithEdges
350
2E
  3
Linepattern
350
38
  3
Realistic
350
33
  3
Thicken
350
37
  0
XRECORD
  5
48F
102
{ACAD_REACTORS
330
C
102
}
330
C
100
AcDbXrecord
280
     1
 90
        1
330
477
  0
DICTIONARY
  5
3FE
102
{ACAD_REACTORS
330
C
102
}
330
C
100
AcDbDictionary
281
     1
  3
CANNOSCALE
350
401
  3
CMLEADERSTYLE
350
48A
  3
CTABLESTYLE
350
489
  3
DIMASSOC
350
402
  3
HIDETEXT
350
403
  3
INDEXCTL
350
48C
  3
SORTENTS
350
48B
  0
XRECORD
  5
4B3
102
{ACAD_REACTORS
330
C
102
}
330
C
100
AcDbXrecord
280
     1
  1
DWGPROPS COOKIE
  2

  3

  4

  6

  7

  8
JOSEPHP
  9

300
=
301
=
302
=
303
=
304
=
305
=
306
=
307
=
308
=
309
=
 40
0.001721099537037
 41
2456125.481310116
 42
2456125.635948403
  1

 90
        0
  0
XRECORD
  5
482
102
{ACAD_REACTORS
330
481
102
}
330
481
100
AcDbXrecord
280
     1
290
     1
  0
XRECORD
  5
484
102
{ACAD_REACTORS
330
483
102
}
330
483
100
AcDbXrecord
280
     1
290
     1
  0
XRECORD
  5
486
102
{ACAD_REACTORS
330
485
102
}
330
485
100
AcDbXrecord
280
     1
290
     1
  0
XRECORD
  5
488
102
{ACAD_REACTORS
330
487
102
}
330
487
100
AcDbXrecord
280
     1
290
     1
  0
XRECORD
  5
453
102
{ACAD_REACTORS
330
404
102
}
330
404
100
AcDbXrecord
280
     1
340
1F
  0
XRECORD
  5
452
102
{ACAD_REACTORS
330
406
102
}
330
406
100
AcDbXrecord
280
     1
340
1B
  0
XRECORD
  5
454
102
{ACAD_REACTORS
330
408
102
}
330
408
100
AcDbXrecord
280
     1
340
23
  0
LAYOUT
  5
1E
102
{ACAD_XDICTIONARY
360
4B4
102
}
102
{ACAD_REACTORS
330
1A
102
}
330
1A
100
AcDbPlotSettings
  1

  2
none_device
  4

  6

 40
0.0
 41
0.0
 42
0.0
 43
0.0
 44
0.0
 45
0.0
 46
0.0
 47
0.0
 48
0.0
 49
0.0
140
0.0
141
0.0
142
1.0
143
1.0
 70
   688
 72
     0
 73
     0
 74
     5
  7

 75
    16
147
1.0
148
0.0
149
0.0
100
AcDbLayout
  1
Layout1
 70
     1
 71
     1
 10
0.0
 20
0.0
 11
415.0
 21
297.0
 12
0.0
 22
0.0
 32
0.0
 14
0.0
 24
0.0
 34
0.0
 15
415.0
 25
297.0
 35
0.0
146
0.0
 13
0.0
 23
0.0
 33
0.0
 16
1.0
 26
0.0
 36
0.0
 17
0.0
 27
1.0
 37
0.0
 76
     0
330
1B
  0
LAYOUT
  5
26
102
{ACAD_XDICTIONARY
360
4B8
102
}
102
{ACAD_REACTORS
330
1A
102
}
330
1A
100
AcDbPlotSettings
  1

  2
none_device
  4

  6

 40
0.0
 41
0.0
 42
0.0
 43
0.0
 44
0.0
 45
0.0
 46
0.0
 47
0.0
 48
0.0
 49
0.0
140
0.0
141
0.0
142
1.0
143
1.0
 70
   688
 72
     0
 73
     0
 74
     5
  7

 75
    16
147
1.0
148
0.0
149
0.0
100
AcDbLayout
  1
Layout2
 70
     1
 71
     2
 10
0.0
 20
0.0
 11
0.0
 21
0.0
 12
0.0
 22
0.0
 32
0.0
 14
0.0
 24
0.0
 34
0.0
 15
0.0
 25
0.0
 35
0.0
146
0.0
 13
0.0
 23
0.0
 33
0.0
 16
1.0
 26
0.0
 36
0.0
 17
0.0
 27
1.0
 37
0.0
 76
     0
330
23
  0
LAYOUT
  5
22
102
{ACAD_XDICTIONARY
360
4B6
102
}
102
{ACAD_REACTORS
330
1A
102
}
330
1A
100
AcDbPlotSettings
  1

  2
none_device
  4

  6

 40
0.0
 41
0.0
 42
0.0
 43
0.0
 44
0.0
 45
0.0
 46
0.0
 47
0.0
 48
0.0
 49
0.0
140
0.0
141
0.0
142
1.0
143
1.0
 70
  1712
 72
     0
 73
     0
 74
     0
  7

 75
     0
147
1.0
148
0.0
149
0.0
100
AcDbLayout
  1
Model
 70
     1
 71
     0
 10
0.0
 20
0.0
 11
415.0
 21
297.0
 12
0.0
 22
0.0
 32
0.0
 14
0.0
 24
0.0
 34
0.0
 15
415.0
 25
297.0
 35
0.0
146
0.0
 13
0.0
 23
0.0
 33
0.0
 16
1.0
 26
0.0
 36
0.0
 17
0.0
 27
1.0
 37
0.0
 76
     0
330
1F
331
29
  0
MATERIAL
  5
465
102
{ACAD_XDICTIONARY
360
466
102
}
102
{ACAD_REACTORS
330
45C
102
}
330
45C
100
AcDbMaterial
  1
ByBlock
 72
     0
 43
0.0208333333333333
 43
0.0
 43
0.0
 43
0.0
 43
0.0
 43
0.0208333333333333
 43
0.0
 43
0.0
 43
0.0
 43
0.0
 43
1.0
 43
0.0
 43
0.0
 43
0.0
 43
0.0
 43
1.0
 77
     0
 47
0.0208333333333333
 47
0.0
 47
0.0
 47
0.0
 47
0.0
 47
0.0208333333333333
 47
0.0
 47
0.0
 47
0.0
 47
0.0
 47
1.0
 47
0.0
 47
0.0
 47
0.0
 47
0.0
 47
1.0
171
     0
 49
0.0208333333333333
 49
0.0
 49
0.0
 49
0.0
 49
0.0
 49
0.0208333333333333
 49
0.0
 49
0.0
 49
0.0
 49
0.0
 49
1.0
 49
0.0
 49
0.0
 49
0.0
 49
0.0
 49
1.0
175
     0
142
0.0208333333333333
142
0.0
142
0.0
142
0.0
142
0.0
142
0.0208333333333333
142
0.0
142
0.0
142
0.0
142
0.0
142
1.0
142
0.0
142
0.0
142
0.0
142
0.0
142
1.0
179
     0
144
0.0208333333333333
144
0.0
144
0.0
144
0.0
144
0.0
144
0.0208333333333333
144
0.0
144
0.0
144
0.0
144
0.0
144
1.0
144
0.0
144
0.0
144
0.0
144
0.0
144
1.0
147
0.0208333333333333
147
0.0
147
0.0
147
0.0
147
0.0
147
0.0208333333333333
147
0.0
147
0.0
147
0.0
147
0.0
147
1.0
147
0.0
147
0.0
147
0.0
147
0.0
147
1.0
  0
MATERIAL
  5
45D
102
{ACAD_XDICTIONARY
360
45E
102
}
102
{ACAD_REACTORS
330
45C
102
}
330
45C
100
AcDbMaterial
  1
ByLayer
 72
     0
 43
0.0208333333333333
 43
0.0
 43
0.0
 43
0.0
 43
0.0
 43
0.0208333333333333
 43
0.0
 43
0.0
 43
0.0
 43
0.0
 43
1.0
 43
0.0
 43
0.0
 43
0.0
 43
0.0
 43
1.0
 77
     0
 47
0.0208333333333333
 47
0.0
 47
0.0
 47
0.0
 47
0.0
 47
0.0208333333333333
 47
0.0
 47
0.0
 47
0.0
 47
0.0
 47
1.0
 47
0.0
 47
0.0
 47
0.0
 47
0.0
 47
1.0
171
     0
 49
0.0208333333333333
 49
0.0
 49
0.0
 49
0.0
 49
0.0
 49
0.0208333333333333
 49
0.0
 49
0.0
 49
0.0
 49
0.0
 49
1.0
 49
0.0
 49
0.0
 49
0.0
 49
0.0
 49
1.0
175
     0
142
0.0208333333333333
142
0.0
142
0.0
142
0.0
142
0.0
142
0.0208333333333333
142
0.0
142
0.0
142
0.0
142
0.0
142
1.0
142
0.0
142
0.0
142
0.0
142
0.0
142
1.0
179
     0
144
0.0208333333333333
144
0.0
144
0.0
144
0.0
144
0.0
144
0.0208333333333333
144
0.0
144
0.0
144
0.0
144
0.0
144
1.0
144
0.0
144
0.0
144
0.0
144
0.0
144
1.0
147
0.0208333333333333
147
0.0
147
0.0
147
0.0
147
0.0
147
0.0208333333333333
147
0.0
147
0.0
147
0.0
147
0.0
147
1.0
147
0.0
147
0.0
147
0.0
147
0.0
147
1.0
  0
MATERIAL
  5
46D
102
{ACAD_XDICTIONARY
360
46E
102
}
102
{ACAD_REACTORS
330
45C
102
}
330
45C
100
AcDbMaterial
  1
Global
 72
     0
 43
0.0208333333333333
 43
0.0
 43
0.0
 43
0.0
 43
0.0
 43
0.0208333333333333
 43
0.0
 43
0.0
 43
0.0
 43
0.0
 43
1.0
 43
0.0
 43
0.0
 43
0.0
 43
0.0
 43
1.0
 77
     0
 47
0.0208333333333333
 47
0.0
 47
0.0
 47
0.0
 47
0.0
 47
0.0208333333333333
 47
0.0
 47
0.0
 47
0.0
 47
0.0
 47
1.0
 47
0.0
 47
0.0
 47
0.0
 47
0.0
 47
1.0
171
     0
 49
0.0208333333333333
 49
0.0
 49
0.0
 49
0.0
 49
0.0
 49
0.0208333333333333
 49
0.0
 49
0.0
 49
0.0
 49
0.0
 49
1.0
 49
0.0
 49
0.0
 49
0.0
 49
0.0
 49
1.0
175
     0
142
0.0208333333333333
142
0.0
142
0.0
142
0.0
142
0.0
142
0.0208333333333333
142
0.0
142
0.0
142
0.0
142
0.0
142
1.0
142
0.0
142
0.0
142
0.0
142
0.0
142
1.0
179
     0
144
0.0208333333333333
144
0.0
144
0.0
144
0.0
144
0.0
144
0.0208333333333333
144
0.0
144
0.0
144
0.0
144
0.0
144
1.0
144
0.0
144
0.0
144
0.0
144
0.0
144
1.0
147
0.0208333333333333
147
0.0
147
0.0
147
0.0
147
0.0
147
0.0208333333333333
147
0.0
147
0.0
147
0.0
147
0.0
147
1.0
147
0.0
147
0.0
147
0.0
147
0.0
147
1.0
  0
MLEADERSTYLE
  5
478
102
{ACAD_REACTORS
330
400
102
}
330
400
100
AcDbMLeaderStyle
170
     2
171
     1
172
     0
 90
        2
 40
0.0
 41
0.0
173
     1
 91
-1056964608
340
14
 92
       -2
290
     1
 42
0.09
291
     1
 43
0.36
  3
Standard
 44
0.18
300

342
11
174
     1
178
     6
175
     1
176
     0
 93
-1056964608
 45
0.18
292
     0
297
     0
 46
0.18
 94
-1056964608
 47
1.0
 49
1.0
140
1.0
293
     1
141
0.0
294
     1
177
     0
142
1.0
295
     0
296
     0
143
0.125
1001
ACAD_MLEADERVER
1070
     2
  0
MLINESTYLE
  5
18
102
{ACAD_REACTORS
330
17
102
}
330
17
100
AcDbMlineStyle
  2
STANDARD
 70
     0
  3

 62
   256
 51
90.0
 52
90.0
 71
     2
 49
0.5
 62
   256
  6
BYLAYER
 49
-0.5
 62
   256
  6
BYLAYER
  0
DICTIONARY
  5
44E
330
E
100
AcDbDictionary
280
     1
281
     1
  3
ACAD_XREC_ROUNDTRIP
360
44F
  0
ACDBPLACEHOLDER
  5
47B
102
{ACAD_REACTORS
330
E
102
}
330
E
  0
ACDBPLACEHOLDER
  5
47A
102
{ACAD_REACTORS
330
E
102
}
330
E
  0
ACDBPLACEHOLDER
  5
F
102
{ACAD_REACTORS
330
E
102
}
330
E
  0
SCALE
  5
8A
102
{ACAD_REACTORS
330
89
102
}
330
89
100
AcDbScale
 70
     0
300
1:1
140
1.0
141
1.0
290
     1
  0
SCALE
  5
8B
102
{ACAD_REACTORS
330
89
102
}
330
89
100
AcDbScale
 70
     0
300
1:2
140
1.0
141
2.0
290
     0
  0
SCALE
  5
8C
102
{ACAD_REACTORS
330
89
102
}
330
89
100
AcDbScale
 70
     0
300
1:4
140
1.0
141
4.0
290
     0
  0
SCALE
  5
8D
102
{ACAD_REACTORS
330
89
102
}
330
89
100
AcDbScale
 70
     0
300
1:5
140
1.0
141
5.0
290
     0
  0
SCALE
  5
8E
102
{ACAD_REACTORS
330
89
102
}
330
89
100
AcDbScale
 70
     0
300
1:8
140
1.0
141
8.0
290
     0
  0
SCALE
  5
8F
102
{ACAD_REACTORS
330
89
102
}
330
89
100
AcDbScale
 70
     0
300
1:10
140
1.0
141
10.0
290
     0
  0
SCALE
  5
90
102
{ACAD_REACTORS
330
89
102
}
330
89
100
AcDbScale
 70
     0
300
1:16
140
1.0
141
16.0
290
     0
  0
SCALE
  5
91
102
{ACAD_REACTORS
330
89
102
}
330
89
100
AcDbScale
 70
     0
300
1:20
140
1.0
141
20.0
290
     0
  0
SCALE
  5
92
102
{ACAD_REACTORS
330
89
102
}
330
89
100
AcDbScale
 70
     0
300
1:30
140
1.0
141
30.0
290
     0
  0
SCALE
  5
93
102
{ACAD_REACTORS
330
89
102
}
330
89
100
AcDbScale
 70
     0
300
1:40
140
1.0
141
40.0
290
     0
  0
SCALE
  5
94
102
{ACAD_REACTORS
330
89
102
}
330
89
100
AcDbScale
 70
     0
300
1:50
140
1.0
141
50.0
290
     0
  0
SCALE
  5
95
102
{ACAD_REACTORS
330
89
102
}
330
89
100
AcDbScale
 70
     0
300
1:100
140
1.0
141
100.0
290
     0
  0
SCALE
  5
96
102
{ACAD_REACTORS
330
89
102
}
330
89
100
AcDbScale
 70
     0
300
2:1
140
2.0
141
1.0
290
     0
  0
SCALE
  5
97
102
{ACAD_REACTORS
330
89
102
}
330
89
100
AcDbScale
 70
     0
300
4:1
140
4.0
141
1.0
290
     0
  0
SCALE
  5
98
102
{ACAD_REACTORS
330
89
102
}
330
89
100
AcDbScale
 70
     0
300
8:1
140
8.0
141
1.0
290
     0
  0
SCALE
  5
99
102
{ACAD_REACTORS
330
89
102
}
330
89
100
AcDbScale
 70
     0
300
10:1
140
10.0
141
1.0
290
     0
  0
SCALE
  5
9A
102
{ACAD_REACTORS
330
89
102
}
330
89
100
AcDbScale
 70
     0
300
100:1
140
100.0
141
1.0
290
     0
  0
SCALE
  5
9B
102
{ACAD_REACTORS
330
89
102
}
330
89
100
AcDbScale
 70
     0
300
1/128" = 1'-0"
140
0.0078125
141
12.0
290
     0
  0
SCALE
  5
9C
102
{ACAD_REACTORS
330
89
102
}
330
89
100
AcDbScale
 70
     0
300
1/64" = 1'-0"
140
0.015625
141
12.0
290
     0
  0
SCALE
  5
9D
102
{ACAD_REACTORS
330
89
102
}
330
89
100
AcDbScale
 70
     0
300
1/32" = 1'-0"
140
0.03125
141
12.0
290
     0
  0
SCALE
  5
9E
102
{ACAD_REACTORS
330
89
102
}
330
89
100
AcDbScale
 70
     0
300
1/16" = 1'-0"
140
0.0625
141
12.0
290
     0
  0
SCALE
  5
9F
102
{ACAD_REACTORS
330
89
102
}
330
89
100
AcDbScale
 70
     0
300
3/32" = 1'-0"
140
0.09375
141
12.0
290
     0
  0
SCALE
  5
A0
102
{ACAD_REACTORS
330
89
102
}
330
89
100
AcDbScale
 70
     0
300
1/8" = 1'-0"
140
0.125
141
12.0
290
     0
  0
SCALE
  5
A1
102
{ACAD_REACTORS
330
89
102
}
330
89
100
AcDbScale
 70
     0
300
3/16" = 1'-0"
140
0.1875
141
12.0
290
     0
  0
SCALE
  5
A2
102
{ACAD_REACTORS
330
89
102
}
330
89
100
AcDbScale
 70
     0
300
1/4" = 1'-0"
140
0.25
141
12.0
290
     0
  0
SCALE
  5
A3
102
{ACAD_REACTORS
330
89
102
}
330
89
100
AcDbScale
 70
     0
300
3/8" = 1'-0"
140
0.375
141
12.0
290
     0
  0
SCALE
  5
A4
102
{ACAD_REACTORS
330
89
102
}
330
89
100
AcDbScale
 70
     0
300
1/2" = 1'-0"
140
0.5
141
12.0
290
     0
  0
SCALE
  5
A5
102
{ACAD_REACTORS
330
89
102
}
330
89
100
AcDbScale
 70
     0
300
3/4" = 1'-0"
140
0.75
141
12.0
290
     0
  0
SCALE
  5
A6
102
{ACAD_REACTORS
330
89
102
}
330
89
100
AcDbScale
 70
     0
300
1" = 1'-0"
140
1.0
141
12.0
290
     0
  0
SCALE
  5
A7
102
{ACAD_REACTORS
330
89
102
}
330
89
100
AcDbScale
 70
     0
300
1-1/2" = 1'-0"
140
1.5
141
12.0
290
     0
  0
SCALE
  5
A8
102
{ACAD_REACTORS
330
89
102
}
330
89
100
AcDbScale
 70
     0
300
3" = 1'-0"
140
3.0
141
12.0
290
     0
  0
SCALE
  5
A9
102
{ACAD_REACTORS
330
89
102
}
330
89
100
AcDbScale
 70
     0
300
6" = 1'-0"
140
6.0
141
12.0
290
     0
  0
SCALE
  5
AA
102
{ACAD_REACTORS
330
89
102
}
330
89
100
AcDbScale
 70
     0
300
1'-0" = 1'-0"
140
12.0
141
12.0
290
     0
  0
TABLESTYLE
  5
477
102
{ACAD_XDICTIONARY
360
48D
102
}
102
{ACAD_REACTORS
330
476
102
}
330
476
100
AcDbTableStyle
  3
Standard
 70
     0
 71
     0
 40
0.06
 41
0.06
280
     0
281
     0
  7
Standard
140
0.18
170
     2
 62
     0
 63
     7
283
     0
274
    -2
284
     1
 64
     0
275
    -2
285
     1
 65
     0
276
    -2
286
     1
 66
     0
277
    -2
287
     1
 67
     0
278
    -2
288
     1
 68
     0
279
    -2
289
     1
 69
     0
  7
Standard
140
0.25
170
     5
 62
     0
 63
     7
283
     0
274
    -2
284
     1
 64
     0
275
    -2
285
     1
 65
     0
276
    -2
286
     1
 66
     0
277
    -2
287
     1
 67
     0
278
    -2
288
     1
 68
     0
279
    -2
289
     1
 69
     0
  7
Standard
140
0.18
170
     5
 62
     0
 63
     7
283
     0
274
    -2
284
     1
 64
     0
275
    -2
285
     1
 65
     0
276
    -2
286
     1
 66
     0
277
    -2
287
     1
 67
     0
278
    -2
288
     1
 68
     0
279
    -2
289
     1
 69
     0
  0
VISUALSTYLE
  5
2F
102
{ACAD_REACTORS
330
2A
102
}
330
2A
100
AcDbVisualStyle
  2
2dWireframe
 70
     4
 71
     0
 72
     2
 73
     0
 90
        0
 40
-0.6
 41
-30.0
 62
     5
 63
     7
 74
     1
 91
        4
 64
     7
 65
   257
 75
     1
175
     1
 42
1.0
 92
        0
 66
   257
 43
1.0
 76
     1
 77
     6
 78
     2
 67
     7
 79
     5
170
     0
171
     0
290
     0
174
     0
 93
        1
 44
0.0
173
     0
291
     0
 45
0.0
1001
ACAD
1000
AcDbSavedByObjectVersion
1070
     0
1000
AcDbSavedByObjectVersion
1070
     0
1000
AcDbSavedByObjectVersion
1070
     0
  0
VISUALSTYLE
  5
31
102
{ACAD_REACTORS
330
2A
102
}
330
2A
100
AcDbVisualStyle
  2
3D Hidden
 70
     6
 71
     1
 72
     2
 73
     2
 90
        0
 40
-0.6
 41
-30.0
 62
     5
 63
     7
 74
     2
 91
        2
 64
     7
 65
   257
 75
     2
175
     1
 42
40.0
 92
        0
 66
   257
 43
1.0
 76
     1
 77
     6
 78
     2
 67
     7
 79
     3
170
     0
171
     0
290
     0
174
     0
 93
        1
 44
0.0
173
     0
291
     0
 45
0.0
1001
ACAD
1000
AcDbSavedByObjectVersion
1070
     0
1000
AcDbSavedByObjectVersion
1070
     0
1000
AcDbSavedByObjectVersion
1070
     0
  0
VISUALSTYLE
  5
30
102
{ACAD_REACTORS
330
2A
102
}
330
2A
100
AcDbVisualStyle
  2
3dWireframe
 70
     5
 71
     0
 72
     2
 73
     0
 90
        0
 40
-0.6
 41
-30.0
 62
     5
 63
     7
 74
     1
 91
        4
 64
     7
 65
   257
 75
     1
175
     1
 42
1.0
 92
        0
 66
   257
 43
1.0
 76
     1
 77
     6
 78
     2
 67
     7
 79
     5
170
     0
171
     0
290
     0
174
     0
 93
        1
 44
0.0
173
     0
291
     0
 45
0.0
1001
ACAD
1000
AcDbSavedByObjectVersion
1070
     0
1000
AcDbSavedByObjectVersion
1070
     0
1000
AcDbSavedByObjectVersion
1070
     0
  0
VISUALSTYLE
  5
32
102
{ACAD_REACTORS
330
2A
102
}
330
2A
100
AcDbVisualStyle
  2
Basic
 70
     7
 71
     1
 72
     0
 73
     1
 90
        0
 40
-0.6
 41
-30.0
 62
     5
 63
     7
 74
     0
 91
        4
 64
     7
 65
   257
 75
     1
175
     1
 42
1.0
 92
        8
 66
     7
 43
1.0
 76
     1
 77
     6
 78
     2
 67
     7
 79
     5
170
     0
171
     0
290
     0
174
     0
 93
        1
 44
0.0
173
     0
291
     1
 45
0.0
1001
ACAD
1000
AcDbSavedByObjectVersion
1070
     0
1000
AcDbSavedByObjectVersion
1070
     0
1000
AcDbSavedByObjectVersion
1070
     0
  0
VISUALSTYLE
  5
36
102
{ACAD_REACTORS
330
2A
102
}
330
2A
100
AcDbVisualStyle
  2
Brighten
 70
    12
 71
     2
 72
     2
 73
     0
 90
        0
 40
-0.6
 41
-30.0
 62
     5
 63
     7
 74
     1
 91
        4
 64
     7
 65
   257
 75
     1
175
     1
 42
1.0
 92
        8
 66
     7
 43
1.0
 76
     1
 77
     6
 78
     2
 67
     7
 79
     5
170
     0
171
     0
290
     0
174
     0
 93
        1
 44
50.0
173
     0
291
     1
 45
0.0
1001
ACAD
1000
AcDbSavedByObjectVersion
1070
     0
1000
AcDbSavedByObjectVersion
1070
     0
1000
AcDbSavedByObjectVersion
1070
     0
  0
VISUALSTYLE
  5
3A
102
{ACAD_REACTORS
330
2A
102
}
330
2A
100
AcDbVisualStyle
  2
ColorChange
 70
    16
 71
     2
 72
     2
 73
     3
 90
        0
 40
-0.6
 41
-30.0
 62
     5
 63
     8
 74
     1
 91
        4
 64
     7
 65
   257
 75
     1
175
     1
 42
1.0
 92
        8
 66
     8
 43
1.0
 76
     1
 77
     6
 78
     2
 67
     7
 79
     5
170
     0
171
     0
290
     0
174
     0
 93
        1
 44
0.0
173
     0
291
     1
 45
0.0
1001
ACAD
1000
AcDbSavedByObjectVersion
1070
     0
1000
AcDbSavedByObjectVersion
1070
     0
1000
AcDbSavedByObjectVersion
1070
     0
  0
VISUALSTYLE
  5
34
102
{ACAD_REACTORS
330
2A
102
}
330
2A
100
AcDbVisualStyle
  2
Conceptual
 70
     9
 71
     3
 72
     2
 73
     0
 90
        0
 40
-0.6
 41
-30.0
 62
     5
 63
     7
 74
     2
 91
        2
 64
     7
 65
   257
 75
     1
175
     1
 42
40.0
 92
        8
 66
     7
 43
1.0
 76
     1
 77
     6
 78
     2
 67
     7
 79
     3
170
     0
171
     0
290
     0
174
     0
 93
        1
 44
0.0
173
     0
291
     0
 45
0.0
1001
ACAD
1000
AcDbSavedByObjectVersion
1070
     0
1000
AcDbSavedByObjectVersion
1070
     0
1000
AcDbSavedByObjectVersion
1070
     0
  0
VISUALSTYLE
  5
35
102
{ACAD_REACTORS
330
2A
102
}
330
2A
100
AcDbVisualStyle
  2
Dim
 70
    11
 71
     2
 72
     2
 73
     0
 90
        0
 40
-0.6
 41
-30.0
 62
     5
 63
     7
 74
     1
 91
        4
 64
     7
 65
   257
 75
     1
175
     1
 42
1.0
 92
        8
 66
     7
 43
1.0
 76
     1
 77
     6
 78
     2
 67
     7
 79
     5
170
     0
171
     0
290
     0
174
     0
 93
        1
 44
-50.0
173
     0
291
     1
 45
0.0
1001
ACAD
1000
AcDbSavedByObjectVersion
1070
     0
1000
AcDbSavedByObjectVersion
1070
     0
1000
AcDbSavedByObjectVersion
1070
     0
  0
VISUALSTYLE
  5
39
102
{ACAD_REACTORS
330
2A
102
}
330
2A
100
AcDbVisualStyle
  2
Facepattern
 70
    15
 71
     2
 72
     2
 73
     0
 90
        0
 40
-0.6
 41
-30.0
 62
     5
 63
     7
 74
     1
 91
        4
 64
     7
 65
   257
 75
     1
175
     1
 42
1.0
 92
        8
 66
     7
 43
1.0
 76
     1
 77
     6
 78
     2
 67
     7
 79
     5
170
     0
171
     0
290
     0
174
     0
 93
        1
 44
0.0
173
     0
291
     1
 45
0.0
1001
ACAD
1000
AcDbSavedByObjectVersion
1070
     0
1000
AcDbSavedByObjectVersion
1070
     0
1000
AcDbSavedByObjectVersion
1070
     0
  0
VISUALSTYLE
  5
2B
102
{ACAD_REACTORS
330
2A
102
}
330
2A
100
AcDbVisualStyle
  2
Flat
 70
     0
 71
     2
 72
     1
 73
     1
 90
        2
 40
-0.6
 41
30.0
 62
     5
 63
     7
 74
     0
 91
        4
 64
     7
 65
   257
 75
     1
175
     1
 42
1.0
 92
        8
 66
     7
 43
1.0
 76
     1
 77
     6
 78
     2
 67
     7
 79
     5
170
     0
171
     0
290
     0
174
     0
 93
       13
 44
0.0
173
     0
291
     1
 45
0.0
1001
ACAD
1000
AcDbSavedByObjectVersion
1070
     0
1000
AcDbSavedByObjectVersion
1070
     0
1000
AcDbSavedByObjectVersion
1070
     0
  0
VISUALSTYLE
  5
2C
102
{ACAD_REACTORS
330
2A
102
}
330
2A
100
AcDbVisualStyle
  2
FlatWithEdges
 70
     1
 71
     2
 72
     1
 73
     1
 90
        2
 40
-0.6
 41
30.0
 62
     5
 63
     7
 74
     1
 91
        4
 64
     7
 65
   257
 75
     1
175
     1
 42
1.0
 92
        0
 66
   257
 43
1.0
 76
     1
 77
     6
 78
     2
 67
     7
 79
     5
170
     0
171
     0
290
     0
174
     0
 93
       13
 44
0.0
173
     0
291
     1
 45
0.0
1001
ACAD
1000
AcDbSavedByObjectVersion
1070
     0
1000
AcDbSavedByObjectVersion
1070
     0
1000
AcDbSavedByObjectVersion
1070
     0
  0
VISUALSTYLE
  5
2D
102
{ACAD_REACTORS
330
2A
102
}
330
2A
100
AcDbVisualStyle
  2
Gouraud
 70
     2
 71
     2
 72
     2
 73
     1
 90
        2
 40
-0.6
 41
30.0
 62
     5
 63
     7
 74
     0
 91
        4
 64
     7
 65
   257
 75
     1
175
     1
 42
1.0
 92
        0
 66
     7
 43
1.0
 76
     1
 77
     6
 78
     2
 67
     7
 79
     5
170
     0
171
     0
290
     0
174
     0
 93
       13
 44
0.0
173
     0
291
     1
 45
0.0
1001
ACAD
1000
AcDbSavedByObjectVersion
1070
     0
1000
AcDbSavedByObjectVersion
1070
     0
1000
AcDbSavedByObjectVersion
1070
     0
  0
VISUALSTYLE
  5
2E
102
{ACAD_REACTORS
330
2A
102
}
330
2A
100
AcDbVisualStyle
  2
GouraudWithEdges
 70
     3
 71
     2
 72
     2
 73
     1
 90
        2
 40
-0.6
 41
30.0
 62
     5
 63
     7
 74
     1
 91
        4
 64
     7
 65
   257
 75
     1
175
     1
 42
1.0
 92
        0
 66
   257
 43
1.0
 76
     1
 77
     6
 78
     2
 67
     7
 79
     5
170
     0
171
     0
290
     0
174
     0
 93
       13
 44
0.0
173
     0
291
     1
 45
0.0
1001
ACAD
1000
AcDbSavedByObjectVersion
1070
     0
1000
AcDbSavedByObjectVersion
1070
     0
1000
AcDbSavedByObjectVersion
1070
     0
  0
VISUALSTYLE
  5
38
102
{ACAD_REACTORS
330
2A
102
}
330
2A
100
AcDbVisualStyle
  2
Linepattern
 70
    14
 71
     2
 72
     2
 73
     0
 90
        0
 40
-0.6
 41
-30.0
 62
     5
 63
     7
 74
     1
 91
        4
 64
     7
 65
   257
 75
     7
175
     7
 42
1.0
 92
        8
 66
     7
 43
1.0
 76
     1
 77
     6
 78
     2
 67
     7
 79
     5
170
     0
171
     0
290
     0
174
     0
 93
        1
 44
0.0
173
     0
291
     1
 45
0.0
1001
ACAD
1000
AcDbSavedByObjectVersion
1070
     0
1000
AcDbSavedByObjectVersion
1070
     0
1000
AcDbSavedByObjectVersion
1070
     0
  0
VISUALSTYLE
  5
33
102
{ACAD_REACTORS
330
2A
102
}
330
2A
100
AcDbVisualStyle
  2
Realistic
 70
     8
 71
     2
 72
     2
 73
     0
 90
        0
 40
-0.6
 41
-30.0
 62
     5
 63
     7
 74
     1
 91
        0
 64
     7
 65
   257
 75
     1
175
     1
 42
1.0
 92
        8
 66
     8
 43
1.0
 76
     1
 77
     6
 78
     2
 67
     7
 79
     5
170
     0
171
     0
290
     0
174
     0
 93
       13
 44
0.0
173
     0
291
     0
 45
0.0
1001
ACAD
1000
AcDbSavedByObjectVersion
1070
     0
1000
AcDbSavedByObjectVersion
1070
     0
1000
AcDbSavedByObjectVersion
1070
     0
  0
VISUALSTYLE
  5
37
102
{ACAD_REACTORS
330
2A
102
}
330
2A
100
AcDbVisualStyle
  2
Thicken
 70
    13
 71
     2
 72
     2
 73
     0
 90
        0
 40
-0.6
 41
-30.0
 62
     5
 63
     7
 74
     1
 91
        4
 64
     7
 65
   257
 75
     1
175
     1
 42
1.0
 92
       12
 66
     7
 43
1.0
 76
     1
 77
     6
 78
     2
 67
     7
 79
     5
170
     0
171
     0
290
     0
174
     0
 93
        1
 44
0.0
173
     0
291
     1
 45
0.0
1001
ACAD
1000
AcDbSavedByObjectVersion
1070
     0
1000
AcDbSavedByObjectVersion
1070
     0
1000
AcDbSavedByObjectVersion
1070
     0
  0
DICTIONARYVAR
  5
401
102
{ACAD_REACTORS
330
3FE
102
}
330
3FE
100
DictionaryVariables
280
     0
  1
1:1
  0
DICTIONARYVAR
  5
48A
102
{ACAD_REACTORS
330
3FE
102
}
330
3FE
100
DictionaryVariables
280
     0
  1
STANDARD
  0
DICTIONARYVAR
  5
489
102
{ACAD_REACTORS
330
3FE
102
}
330
3FE
100
DictionaryVariables
280
     0
  1
STANDARD
  0
DICTIONARYVAR
  5
402
102
{ACAD_REACTORS
330
3FE
102
}
330
3FE
100
DictionaryVariables
280
     0
  1
2
  0
DICTIONARYVAR
  5
403
102
{ACAD_REACTORS
330
3FE
102
}
330
3FE
100
DictionaryVariables
280
     0
  1
1
  0
DICTIONARYVAR
  5
48C
102
{ACAD_REACTORS
330
3FE
102
}
330
3FE
100
DictionaryVariables
280
     0
  1
0
  0
DICTIONARYVAR
  5
48B
102
{ACAD_REACTORS
330
3FE
102
}
330
3FE
100
DictionaryVariables
280
     0
  1
127
  0
DICTIONARY
  5
4B4
330
1E
100
AcDbDictionary
280
     1
281
     1
  3
ACAD_XREC_ROUNDTRIP
360
4B5
  0
DICTIONARY
  5
4B8
330
26
100
AcDbDictionary
280
     1
281
     1
  3
ACAD_XREC_ROUNDTRIP
360
4B9
  0
DICTIONARY
  5
4B6
330
22
100
AcDbDictionary
280
     1
281
     1
  3
ACAD_XREC_ROUNDTRIP
360
4B7
  0
DICTIONARY
  5
466
330
465
100
AcDbDictionary
280
     1
281
     1
  3
ACAD_XREC_ROUNDTRIP
360
498
  3
BUMPTILE
360
468
  3
DIFFUSETILE
360
467
  3
OPACITYTILE
360
46B
  3
REFLECTIONTILE
360
46A
  3
REFRACTIONTILE
360
46C
  3
SPECULARTILE
360
469
  0
DICTIONARY
  5
45E
330
45D
100
AcDbDictionary
280
     1
281
     1
  3
ACAD_XREC_ROUNDTRIP
360
497
  3
BUMPTILE
360
460
  3
DIFFUSETILE
360
45F
  3
OPACITYTILE
360
463
  3
REFLECTIONTILE
360
462
  3
REFRACTIONTILE
360
464
  3
SPECULARTILE
360
461
  0
DICTIONARY
  5
46E
330
46D
100
AcDbDictionary
280
     1
281
     1
  3
ACAD_XREC_ROUNDTRIP
360
499
  3
BUMPTILE
360
470
  3
DIFFUSETILE
360
46F
  3
OPACITYTILE
360
473
  3
REFLECTIONTILE
360
472
  3
REFRACTIONTILE
360
474
  3
SPECULARTILE
360
471
  0
XRECORD
  5
44F
102
{ACAD_REACTORS
330
44E
102
}
330
44E
100
AcDbXrecord
280
     1
102
EXTNAMES
  1
NORMAL
  2
Normal
  0
DICTIONARY
  5
48D
330
477
100
AcDbDictionary
280
     1
281
     1
  3
ACAD_ROUNDTRIP_2008_TABLESTYLE_CELLSTYLEMAP
360
4B2
  3
ACAD_XREC_ROUNDTRIP
360
4BA
  0
XRECORD
  5
4B5
102
{ACAD_REACTORS
330
4B4
102
}
330
4B4
100
AcDbXrecord
280
     1
102
SHADEPLOT
 70
     0
102
SHADEPLOTRESLEVEL
 70
     2
102
SHADEPLOTCUSTOMDPI
 70
   300
  0
XRECORD
  5
4B9
102
{ACAD_REACTORS
330
4B8
102
}
330
4B8
100
AcDbXrecord
280
     1
102
SHADEPLOT
 70
     0
102
SHADEPLOTRESLEVEL
 70
     2
102
SHADEPLOTCUSTOMDPI
 70
   300
  0
XRECORD
  5
4B7
102
{ACAD_REACTORS
330
4B6
102
}
330
4B6
100
AcDbXrecord
280
     1
102
SHADEPLOT
 70
     0
102
SHADEPLOTRESLEVEL
 70
     2
102
SHADEPLOTCUSTOMDPI
 70
   300
  0
XRECORD
  5
498
102
{ACAD_REACTORS
330
466
102
}
330
466
100
AcDbXrecord
280
     1
102
MATERIAL
148
0.0
149
0.0
149
0.0
 93
        0
 94
      127
282
     0
 72
     0
 77
     0
171
     0
175
     0
179
     0
273
     0
  0
XRECORD
  5
468
102
{ACAD_REACTORS
330
466
102
}
330
466
100
AcDbXrecord
280
     1
270
     1
271
     1
  0
XRECORD
  5
467
102
{ACAD_REACTORS
330
466
102
}
330
466
100
AcDbXrecord
280
     1
270
     1
271
     1
  0
XRECORD
  5
46B
102
{ACAD_REACTORS
330
466
102
}
330
466
100
AcDbXrecord
280
     1
270
     1
271
     1
  0
XRECORD
  5
46A
102
{ACAD_REACTORS
330
466
102
}
330
466
100
AcDbXrecord
280
     1
270
     1
271
     1
  0
XRECORD
  5
46C
102
{ACAD_REACTORS
330
466
102
}
330
466
100
AcDbXrecord
280
     1
270
     1
271
     1
  0
XRECORD
  5
469
102
{ACAD_REACTORS
330
466
102
}
330
466
100
AcDbXrecord
280
     1
270
     1
271
     1
  0
XRECORD
  5
497
102
{ACAD_REACTORS
330
45E
102
}
330
45E
100
AcDbXrecord
280
     1
102
MATERIAL
148
0.0
149
0.0
149
0.0
 93
        0
 94
      127
282
     0
 72
     0
 77
     0
171
     0
175
     0
179
     0
273
     0
  0
XRECORD
  5
460
102
{ACAD_REACTORS
330
45E
102
}
330
45E
100
AcDbXrecord
280
     1
270
     1
271
     1
  0
XRECORD
  5
45F
102
{ACAD_REACTORS
330
45E
102
}
330
45E
100
AcDbXrecord
280
     1
270
     1
271
     1
  0
XRECORD
  5
463
102
{ACAD_REACTORS
330
45E
102
}
330
45E
100
AcDbXrecord
280
     1
270
     1
271
     1
  0
XRECORD
  5
462
102
{ACAD_REACTORS
330
45E
102
}
330
45E
100
AcDbXrecord
280
     1
270
     1
271
     1
  0
XRECORD
  5
464
102
{ACAD_REACTORS
330
45E
102
}
330
45E
100
AcDbXrecord
280
     1
270
     1
271
     1
  0
XRECORD
  5
461
102
{ACAD_REACTORS
330
45E
102
}
330
45E
100
AcDbXrecord
280
     1
270
     1
271
     1
  0
XRECORD
  5
499
102
{ACAD_REACTORS
330
46E
102
}
330
46E
100
AcDbXrecord
280
     1
102
MATERIAL
148
0.0
149
0.0
149
0.0
 93
        0
 94
      127
282
     0
 72
     0
 77
     0
171
     0
175
     0
179
     0
273
     0
  0
XRECORD
  5
470
102
{ACAD_REACTORS
330
46E
102
}
330
46E
100
AcDbXrecord
280
     1
270
     1
271
     1
  0
XRECORD
  5
46F
102
{ACAD_REACTORS
330
46E
102
}
330
46E
100
AcDbXrecord
280
     1
270
     1
271
     1
  0
XRECORD
  5
473
102
{ACAD_REACTORS
330
46E
102
}
330
46E
100
AcDbXrecord
280
     1
270
     1
271
     1
  0
XRECORD
  5
472
102
{ACAD_REACTORS
330
46E
102
}
330
46E
100
AcDbXrecord
280
     1
270
     1
271
     1
  0
XRECORD
  5
474
102
{ACAD_REACTORS
330
46E
102
}
330
46E
100
AcDbXrecord
280
     1
270
     1
271
     1
  0
XRECORD
  5
471
102
{ACAD_REACTORS
330
46E
102
}
330
46E
100
AcDbXrecord
280
     1
270
     1
271
     1
  0
CELLSTYLEMAP
  5
4B2
102
{ACAD_REACTORS
330
48D
102
}
330
48D
100
AcDbCellStyleMap
 90
        3
300
CELLSTYLE
  1
TABLEFORMAT_BEGIN
 90
        5
170
     1
 91
        0
 92
    32768
 62
   257
 93
        1
300
CONTENTFORMAT
  1
CONTENTFORMAT_BEGIN
 90
        0
 91
        0
 92
      512
 93
        0
300

 40
0.0
140
1.0
 94
        5
 62
     0
340
11
144
0.25
309
CONTENTFORMAT_END
171
     1
301
MARGIN
  1
CELLMARGIN_BEGIN
 40
0.06
 40
0.06
 40
0.06
 40
0.06
 40
0.18
 40
0.18
309
CELLMARGIN_END
 94
        6
 95
        1
302
GRIDFORMAT
  1
GRIDFORMAT_BEGIN
 90
        0
 91
        1
 62
     0
 92
       -2
340
0
 93
        0
 40
0.045
309
GRIDFORMAT_END
 95
        2
302
GRIDFORMAT
  1
GRIDFORMAT_BEGIN
 90
        0
 91
        1
 62
     0
 92
       -2
340
0
 93
        0
 40
0.045
309
GRIDFORMAT_END
 95
        4
302
GRIDFORMAT
  1
GRIDFORMAT_BEGIN
 90
        0
 91
        1
 62
     0
 92
       -2
340
0
 93
        0
 40
0.045
309
GRIDFORMAT_END
 95
        8
302
GRIDFORMAT
  1
GRIDFORMAT_BEGIN
 90
        0
 91
        1
 62
     0
 92
       -2
340
0
 93
        0
 40
0.045
309
GRIDFORMAT_END
 95
       16
302
GRIDFORMAT
  1
GRIDFORMAT_BEGIN
 90
        0
 91
        1
 62
     0
 92
       -2
340
0
 93
        0
 40
0.045
309
GRIDFORMAT_END
 95
       32
302
GRIDFORMAT
  1
GRIDFORMAT_BEGIN
 90
        0
 91
        1
 62
     0
 92
       -2
340
0
 93
        0
 40
0.045
309
GRIDFORMAT_END
309
TABLEFORMAT_END
  1
CELLSTYLE_BEGIN
 90
        1
 91
        1
300
_TITLE
309
CELLSTYLE_END
300
CELLSTYLE
  1
TABLEFORMAT_BEGIN
 90
        5
170
     1
 91
        0
 92
        0
 62
   257
 93
        1
300
CONTENTFORMAT
  1
CONTENTFORMAT_BEGIN
 90
        0
 91
        0
 92
      512
 93
        0
300

 40
0.0
140
1.0
 94
        5
 62
     0
340
11
144
0.18
309
CONTENTFORMAT_END
171
     1
301
MARGIN
  1
CELLMARGIN_BEGIN
 40
0.06
 40
0.06
 40
0.06
 40
0.06
 40
0.18
 40
0.18
309
CELLMARGIN_END
 94
        6
 95
        1
302
GRIDFORMAT
  1
GRIDFORMAT_BEGIN
 90
        0
 91
        1
 62
     0
 92
       -2
340
0
 93
        0
 40
0.045
309
GRIDFORMAT_END
 95
        2
302
GRIDFORMAT
  1
GRIDFORMAT_BEGIN
 90
        0
 91
        1
 62
     0
 92
       -2
340
0
 93
        0
 40
0.045
309
GRIDFORMAT_END
 95
        4
302
GRIDFORMAT
  1
GRIDFORMAT_BEGIN
 90
        0
 91
        1
 62
     0
 92
       -2
340
0
 93
        0
 40
0.045
309
GRIDFORMAT_END
 95
        8
302
GRIDFORMAT
  1
GRIDFORMAT_BEGIN
 90
        0
 91
        1
 62
     0
 92
       -2
340
0
 93
        0
 40
0.045
309
GRIDFORMAT_END
 95
       16
302
GRIDFORMAT
  1
GRIDFORMAT_BEGIN
 90
        0
 91
        1
 62
     0
 92
       -2
340
0
 93
        0
 40
0.045
309
GRIDFORMAT_END
 95
       32
302
GRIDFORMAT
  1
GRIDFORMAT_BEGIN
 90
        0
 91
        1
 62
     0
 92
       -2
340
0
 93
        0
 40
0.045
309
GRIDFORMAT_END
309
TABLEFORMAT_END
  1
CELLSTYLE_BEGIN
 90
        2
 91
        1
300
_HEADER
309
CELLSTYLE_END
300
CELLSTYLE
  1
TABLEFORMAT_BEGIN
 90
        5
170
     1
 91
        0
 92
        0
 62
   257
 93
        1
300
CONTENTFORMAT
  1
CONTENTFORMAT_BEGIN
 90
        0
 91
        0
 92
      512
 93
        0
300

 40
0.0
140
1.0
 94
        2
 62
     0
340
11
144
0.18
309
CONTENTFORMAT_END
171
     1
301
MARGIN
  1
CELLMARGIN_BEGIN
 40
0.06
 40
0.06
 40
0.06
 40
0.06
 40
0.18
 40
0.18
309
CELLMARGIN_END
 94
        6
 95
        1
302
GRIDFORMAT
  1
GRIDFORMAT_BEGIN
 90
        0
 91
        1
 62
     0
 92
       -2
340
0
 93
        0
 40
0.045
309
GRIDFORMAT_END
 95
        2
302
GRIDFORMAT
  1
GRIDFORMAT_BEGIN
 90
        0
 91
        1
 62
     0
 92
       -2
340
0
 93
        0
 40
0.045
309
GRIDFORMAT_END
 95
        4
302
GRIDFORMAT
  1
GRIDFORMAT_BEGIN
 90
        0
 91
        1
 62
     0
 92
       -2
340
0
 93
        0
 40
0.045
309
GRIDFORMAT_END
 95
        8
302
GRIDFORMAT
  1
GRIDFORMAT_BEGIN
 90
        0
 91
        1
 62
     0
 92
       -2
340
0
 93
        0
 40
0.045
309
GRIDFORMAT_END
 95
       16
302
GRIDFORMAT
  1
GRIDFORMAT_BEGIN
 90
        0
 91
        1
 62
     0
 92
       -2
340
0
 93
        0
 40
0.045
309
GRIDFORMAT_END
 95
       32
302
GRIDFORMAT
  1
GRIDFORMAT_BEGIN
 90
        0
 91
        1
 62
     0
 92
       -2
340
0
 93
        0
 40
0.045
309
GRIDFORMAT_END
309
TABLEFORMAT_END
  1
CELLSTYLE_BEGIN
 90
        3
 91
        2
300
_DATA
309
CELLSTYLE_END
  0
XRECORD
  5
4BA
102
{ACAD_REACTORS
330
48D
102
}
330
48D
100
AcDbXrecord
280
     1
102
ACAD_ROUNDTRIP_PRE2007_TABLESTYLE
 90
      512
 91
        0
  1

 92
      512
 93
        0
  2

 94
      512
 95
        0
  3

  0
ENDSEC
  0
EOF
