  0
SECTION
  2
HEADER
  9
$ACADVER
  1
AC1014
  9
$ACADMAINTVER
 70
     9
  9
$DWGCODEPAGE
  3
ANSI_1252
  9
$INSBASE
 10
0.0
 20
0.0
 30
0.0
  9
$EXTMIN
 10
0.0
 20
0.0
 30
0.0
  9
$EXTMAX
 10
415.0
 20
297.0
 30
0.0
  9
$LIMMIN
 10
0.0
 20
0.0
  9
$LIMMAX
 10
415.0
 20
297.0
  9
$ORTHOMODE
 70
     0
  9
$REGENMODE
 70
     1
  9
$FILLMODE
 70
     1
  9
$QTEXTMODE
 70
     0
  9
$MIRRTEXT
 70
     1
  9
$DRAGMODE
 70
     2
  9
$LTSCALE
 40
1.0
  9
$OSMODE
 70
    37
  9
$ATTMODE
 70
     1
  9
$TEXTSIZE
 40
0.2
  9
$TRACEWID
 40
0.05
  9
$TEXTSTYLE
  7
STANDARD
  9
$CLAYER
  8
0
  9
$CELTYPE
  6
BYLAYER
  9
$CECOLOR
 62
   256
  9
$CELTSCALE
 40
1.0
  9
$DELOBJ
 70
     1
  9
$DISPSILH
 70
     0
  9
$DIMSCALE
 40
1.0
  9
$DIMASZ
 40
0.18
  9
$DIMEXO
 40
0.0625
  9
$DIMDLI
 40
0.38
  9
$DIMRND
 40
0.0
  9
$DIMDLE
 40
0.0
  9
$DIMEXE
 40
0.18
  9
$DIMTP
 40
0.0
  9
$DIMTM
 40
0.0
  9
$DIMTXT
 40
0.18
  9
$DIMCEN
 40
0.09
  9
$DIMTSZ
 40
0.0
  9
$DIMTOL
 70
     0
  9
$DIMLIM
 70
     0
  9
$DIMTIH
 70
     1
  9
$DIMTOH
 70
     1
  9
$DIMSE1
 70
     0
  9
$DIMSE2
 70
     0
  9
$DIMTAD
 70
     0
  9
$DIMZIN
 70
     0
  9
$DIMBLK
  1

  9
$DIMASO
 70
     1
  9
$DIMSHO
 70
     1
  9
$DIMPOST
  1

  9
$DIMAPOST
  1

  9
$DIMALT
 70
     0
  9
$DIMALTD
 70
     2
  9
$DIMALTF
 40
25.4
  9
$DIMLFAC
 40
1.0
  9
$DIMTOFL
 70
     0
  9
$DIMTVP
 40
0.0
  9
$DIMTIX
 70
     0
  9
$DIMSOXD
 70
     0
  9
$DIMSAH
 70
     0
  9
$DIMBLK1
  1

  9
$DIMBLK2
  1

  9
$DIMSTYLE
  2
STANDARD
  9
$DIMCLRD
 70
     0
  9
$DIMCLRE
 70
     0
  9
$DIMCLRT
 70
     0
  9
$DIMTFAC
 40
1.0
  9
$DIMGAP
 40
0.09
  9
$DIMJUST
 70
     0
  9
$DIMSD1
 70
     0
  9
$DIMSD2
 70
     0
  9
$DIMTOLJ
 70
     1
  9
$DIMTZIN
 70
     0
  9
$DIMALTZ
 70
     0
  9
$DIMALTTZ
 70
     0
  9
$DIMFIT
 70
     3
  9
$DIMUPT
 70
     0
  9
$DIMUNIT
 70
     2
  9
$DIMDEC
 70
     4
  9
$DIMTDEC
 70
     4
  9
$DIMALTU
 70
     2
  9
$DIMALTTD
 70
     2
  9
$DIMTXSTY
  7
STANDARD
  9
$DIMAUNIT
 70
     0
  9
$LUNITS
 70
     2
  9
$LUPREC
 70
     4
  9
$SKETCHINC
 40
0.1
  9
$FILLETRAD
 40
0.5
  9
$AUNITS
 70
     0
  9
$AUPREC
 70
     0
  9
$MENU
  1
.
  9
$ELEVATION
 40
0.0
  9
$PELEVATION
 40
0.0
  9
$THICKNESS
 40
0.0
  9
$LIMCHECK
 70
     0
  9
$CHAMFERA
 40
0.5
  9
$CHAMFERB
 40
0.5
  9
$CHAMFERC
 40
1.0
  9
$CHAMFERD
 40
0.0
  9
$SKPOLY
 70
     0
  9
$TDCREATE
 40
2455225.468860278
  9
$TDUPDATE
 40
2455225.46886029
  9
$TDINDWG
 40
0.0000000116
  9
$TDUSRTIMER
 40
0.0000000116
  9
$USRTIMER
 70
     1
  9
$ANGBASE
 50
0.0
  9
$ANGDIR
 70
     0
  9
$PDMODE
 70
     0
  9
$PDSIZE
 40
0.0
  9
$PLINEWID
 40
0.0
  9
$COORDS
 70
     1
  9
$SPLFRAME
 70
     0
  9
$SPLINETYPE
 70
     6
  9
$SPLINESEGS
 70
     8
  9
$ATTDIA
 70
     0
  9
$ATTREQ
 70
     1
  9
$HANDLING
 70
     1
  9
$HANDSEED
  5
382
  9
$SURFTAB1
 70
     6
  9
$SURFTAB2
 70
     6
  9
$SURFTYPE
 70
     6
  9
$SURFU
 70
     6
  9
$SURFV
 70
     6
  9
$UCSNAME
  2

  9
$UCSORG
 10
0.0
 20
0.0
 30
0.0
  9
$UCSXDIR
 10
1.0
 20
0.0
 30
0.0
  9
$UCSYDIR
 10
0.0
 20
1.0
 30
0.0
  9
$PUCSNAME
  2

  9
$PUCSORG
 10
0.0
 20
0.0
 30
0.0
  9
$PUCSXDIR
 10
1.0
 20
0.0
 30
0.0
  9
$PUCSYDIR
 10
0.0
 20
1.0
 30
0.0
  9
$USERI1
 70
     0
  9
$USERI2
 70
     0
  9
$USERI3
 70
     0
  9
$USERI4
 70
     0
  9
$USERI5
 70
     0
  9
$USERR1
 40
0.0
  9
$USERR2
 40
0.0
  9
$USERR3
 40
0.0
  9
$USERR4
 40
0.0
  9
$USERR5
 40
0.0
  9
$WORLDVIEW
 70
     1
  9
$SHADEDGE
 70
     3
  9
$SHADEDIF
 70
    70
  9
$TILEMODE
 70
     1
  9
$MAXACTVP
 70
    64
  9
$PINSBASE
 10
0.0
 20
0.0
 30
0.0
  9
$PLIMCHECK
 70
     0
  9
$PEXTMIN
 10
0.0
 20
0.0
 30
0.0
  9
$PEXTMAX
 10
415.0
 20
297.0
 30
0.0
  9
$PLIMMIN
 10
0.0
 20
0.0
  9
$PLIMMAX
 10
415.0
 20
297.0
  9
$UNITMODE
 70
     0
  9
$VISRETAIN
 70
     1
  9
$PLINEGEN
 70
     0
  9
$PSLTSCALE
 70
     1
  9
$TREEDEPTH
 70
  3020
  9
$PICKSTYLE
 70
     1
  9
$CMLSTYLE
  2
STANDARD
  9
$CMLJUST
 70
     0
  9
$CMLSCALE
 40
1.0
  9
$PROXYGRAPHICS
 70
     1
  9
$MEASUREMENT
 70
     0
  0
ENDSEC
  0
SECTION
  2
CLASSES
  0
CLASS
  1
ACDBDICTIONARYWDFLT
  2
AcDbDictionaryWithDefault
  3
ObjectDBX Classes
 90
        0
280
     0
281
     0
  0
CLASS
  1
XRECORD
  2
AcDbXrecord
  3
AutoCAD 2000
 90
        0
280
     0
281
     0
  0
CLASS
  1
LWPOLYLINE
  2
AcDbPolyline
  3
AutoCAD 2000
 90
        0
280
     0
281
     1
  0
CLASS
  1
HATCH
  2
AcDbHatch
  3
AutoCAD 2000
 90
        0
280
     0
281
     1
  0
CLASS
  1
ACDBPLACEHOLDER
  2
AcDbPlaceHolder
  3
ObjectDBX Classes
 90
        0
280
     0
281
     0
  0
CLASS
  1
LAYOUT
  2
AcDbLayout
  3
ObjectDBX Classes
 90
        0
280
     0
281
     0
  0
ENDSEC
  0
SECTION
  2
TABLES
  0
TABLE
  2
VPORT
  5
8
330
0
100
AcDbSymbolTable
 70
     1
  0
VPORT
  5
29
102
{ACAD_XDICTIONARY
360
380
102
}
330
8
100
AcDbSymbolTableRecord
100
AcDbViewportTableRecord
  2
*ACTIVE
 70
     0
 10
0.0
 20
0.0
 11
1.0
 21
1.0
 12
207.5
 22
148.5
 13
0.0
 23
0.0
 14
0.5
 24
0.5
 15
0.5
 25
0.5
 16
0.0
 26
0.0
 36
1.0
 17
0.0
 27
0.0
 37
0.0
 40
297.0
 41
1.397306397306397
 42
50.0
 43
0.0
 44
0.0
 50
0.0
 51
0.0
 71
     0
 72
   100
 73
     1
 74
     3
 75
     0
 76
     0
 77
     0
 78
     0
  0
ENDTAB
  0
TABLE
  2
LTYPE
  5
5
330
0
100
AcDbSymbolTable
 70
    43
  0
LTYPE
  5
14
330
5
100
AcDbSymbolTableRecord
100
AcDbLinetypeTableRecord
  2
BYBLOCK
 70
     0
  3

 72
    65
 73
     0
 40
0.0
  0
LTYPE
  5
15
330
5
100
AcDbSymbolTableRecord
100
AcDbLinetypeTableRecord
  2
BYLAYER
 70
     0
  3

 72
    65
 73
     0
 40
0.0
  0
LTYPE
  5
16
330
5
100
AcDbSymbolTableRecord
100
AcDbLinetypeTableRecord
  2
CONTINUOUS
 70
     0
  3
Solid line
 72
    65
 73
     0
 40
0.0
  0
LTYPE
  5
2A
330
5
100
AcDbSymbolTableRecord
100
AcDbLinetypeTableRecord
  2
FIN
 70
     0
  3
________________________________
 72
    65
 73
     0
 40
0.0
  0
LTYPE
  5
2B
330
5
100
AcDbSymbolTableRecord
100
AcDbLinetypeTableRecord
  2
MOYEN
 70
     0
  3
________________________________
 72
    65
 73
     0
 40
0.0
  0
LTYPE
  5
2C
330
5
100
AcDbSymbolTableRecord
100
AcDbLinetypeTableRecord
  2
EPAIS
 70
     0
  3
________________________________
 72
    65
 73
     0
 40
0.0
  0
LTYPE
  5
2D
330
5
100
AcDbSymbolTableRecord
100
AcDbLinetypeTableRecord
  2
TIRET
 70
     0
  3
____    ____    ____    ____    
 72
    65
 73
     4
 40
16.0
 49
4.0
 74
     0
 49
-4.0
 74
     0
 49
4.0
 74
     0
 49
-4.0
 74
     0
  0
LTYPE
  5
2E
330
5
100
AcDbSymbolTableRecord
100
AcDbLinetypeTableRecord
  2
POINT
 70
     0
  3
_ _ _ _ _ _ _ _ _ _ _ _ _ _ _ _ 
 72
    65
 73
     8
 40
8.0
 49
1.0
 74
     0
 49
-1.0
 74
     0
 49
1.0
 74
     0
 49
-1.0
 74
     0
 49
1.0
 74
     0
 49
-1.0
 74
     0
 49
1.0
 74
     0
 49
-1.0
 74
     0
  0
LTYPE
  5
2F
330
5
100
AcDbSymbolTableRecord
100
AcDbLinetypeTableRecord
  2
AXES
 70
     0
  3
_______   _     _______   _     
 72
    65
 73
     4
 40
16.0
 49
7.0
 74
     0
 49
-3.0
 74
     0
 49
1.0
 74
     0
 49
-5.0
 74
     0
  0
LTYPE
  5
30
330
5
100
AcDbSymbolTableRecord
100
AcDbLinetypeTableRecord
  2
AXESDBLE
 70
     0
  3
_____   _   _   _____   _   _   
 72
    65
 73
     6
 40
16.0
 49
5.0
 74
     0
 49
-3.0
 74
     0
 49
1.0
 74
     0
 49
-3.0
 74
     0
 49
1.0
 74
     0
 49
-3.0
 74
     0
  0
LTYPE
  5
31
330
5
100
AcDbSymbolTableRecord
100
AcDbLinetypeTableRecord
  2
BLEU
 70
     0
  3
________________________________
 72
    65
 73
     0
 40
0.0
  0
LTYPE
  5
32
330
5
100
AcDbSymbolTableRecord
100
AcDbLinetypeTableRecord
  2
VERT
 70
     0
  3
________________________________
 72
    65
 73
     0
 40
0.0
  0
LTYPE
  5
33
330
5
100
AcDbSymbolTableRecord
100
AcDbLinetypeTableRecord
  2
CYAN
 70
     0
  3
________________________________
 72
    65
 73
     0
 40
0.0
  0
LTYPE
  5
34
330
5
100
AcDbSymbolTableRecord
100
AcDbLinetypeTableRecord
  2
ROUGE
 70
     0
  3
________________________________
 72
    65
 73
     0
 40
0.0
  0
LTYPE
  5
35
330
5
100
AcDbSymbolTableRecord
100
AcDbLinetypeTableRecord
  2
VIOLET
 70
     0
  3
________________________________
 72
    65
 73
     0
 40
0.0
  0
LTYPE
  5
36
330
5
100
AcDbSymbolTableRecord
100
AcDbLinetypeTableRecord
  2
JAUNE
 70
     0
  3
________________________________
 72
    65
 73
     0
 40
0.0
  0
LTYPE
  5
37
330
5
100
AcDbSymbolTableRecord
100
AcDbLinetypeTableRecord
  2
NOIR
 70
     0
  3
________________________________
 72
    65
 73
     0
 40
0.0
  0
LTYPE
  5
38
330
5
100
AcDbSymbolTableRecord
100
AcDbLinetypeTableRecord
  2
BLANC
 70
     0
  3
________________________________
 72
    65
 73
     0
 40
0.0
  0
LTYPE
  5
39
330
5
100
AcDbSymbolTableRecord
100
AcDbLinetypeTableRecord
  2
ORANGE
 70
     0
  3
________________________________
 72
    65
 73
     0
 40
0.0
  0
LTYPE
  5
3A
330
5
100
AcDbSymbolTableRecord
100
AcDbLinetypeTableRecord
  2
BRUN
 70
     0
  3
________________________________
 72
    65
 73
     0
 40
0.0
  0
LTYPE
  5
3B
330
5
100
AcDbSymbolTableRecord
100
AcDbLinetypeTableRecord
  2
GRIS
 70
     0
  3
________________________________
 72
    65
 73
     0
 40
0.0
  0
LTYPE
  5
3C
330
5
100
AcDbSymbolTableRecord
100
AcDbLinetypeTableRecord
  2
SYMBOL_C
 70
     0
  3
________________________________
 72
    65
 73
     0
 40
0.0
  0
LTYPE
  5
3D
330
5
100
AcDbSymbolTableRecord
100
AcDbLinetypeTableRecord
  2
SYMBOL_P
 70
     0
  3
________________________________
 72
    65
 73
     0
 40
0.0
  0
LTYPE
  5
3E
330
5
100
AcDbSymbolTableRecord
100
AcDbLinetypeTableRecord
  2
LINE
 70
     0
  3
________________________________
 72
    65
 73
     0
 40
0.0
  0
LTYPE
  5
3F
330
5
100
AcDbSymbolTableRecord
100
AcDbLinetypeTableRecord
  2
LINE_1
 70
     0
  3
________________________________
 72
    65
 73
     0
 40
0.0
  0
LTYPE
  5
40
330
5
100
AcDbSymbolTableRecord
100
AcDbLinetypeTableRecord
  2
LINE_2
 70
     0
  3
________________________________
 72
    65
 73
     0
 40
0.0
  0
LTYPE
  5
41
330
5
100
AcDbSymbolTableRecord
100
AcDbLinetypeTableRecord
  2
LINE_3
 70
     0
  3
________________________________
 72
    65
 73
     0
 40
0.0
  0
LTYPE
  5
42
330
5
100
AcDbSymbolTableRecord
100
AcDbLinetypeTableRecord
  2
LINE_4
 70
     0
  3
________________________________
 72
    65
 73
     0
 40
0.0
  0
LTYPE
  5
43
330
5
100
AcDbSymbolTableRecord
100
AcDbLinetypeTableRecord
  2
LINE_5
 70
     0
  3
________________________________
 72
    65
 73
     0
 40
0.0
  0
LTYPE
  5
44
330
5
100
AcDbSymbolTableRecord
100
AcDbLinetypeTableRecord
  2
LINE_6
 70
     0
  3
________________________________
 72
    65
 73
     0
 40
0.0
  0
LTYPE
  5
45
330
5
100
AcDbSymbolTableRecord
100
AcDbLinetypeTableRecord
  2
LINE_7
 70
     0
  3
________________________________
 72
    65
 73
     0
 40
0.0
  0
LTYPE
  5
46
330
5
100
AcDbSymbolTableRecord
100
AcDbLinetypeTableRecord
  2
LINE_8
 70
     0
  3
________________________________
 72
    65
 73
     0
 40
0.0
  0
LTYPE
  5
47
330
5
100
AcDbSymbolTableRecord
100
AcDbLinetypeTableRecord
  2
LINE_9
 70
     0
  3
________________________________
 72
    65
 73
     0
 40
0.0
  0
LTYPE
  5
48
330
5
100
AcDbSymbolTableRecord
100
AcDbLinetypeTableRecord
  2
LINE_10
 70
     0
  3
________________________________
 72
    65
 73
     0
 40
0.0
  0
LTYPE
  5
49
330
5
100
AcDbSymbolTableRecord
100
AcDbLinetypeTableRecord
  2
LINE_11
 70
     0
  3
________________________________
 72
    65
 73
     0
 40
0.0
  0
LTYPE
  5
4A
330
5
100
AcDbSymbolTableRecord
100
AcDbLinetypeTableRecord
  2
LINE_12
 70
     0
  3
________________________________
 72
    65
 73
     0
 40
0.0
  0
LTYPE
  5
4B
330
5
100
AcDbSymbolTableRecord
100
AcDbLinetypeTableRecord
  2
LINE_13
 70
     0
  3
________________________________
 72
    65
 73
     0
 40
0.0
  0
LTYPE
  5
4C
330
5
100
AcDbSymbolTableRecord
100
AcDbLinetypeTableRecord
  2
LINE_14
 70
     0
  3
________________________________
 72
    65
 73
     0
 40
0.0
  0
LTYPE
  5
4D
330
5
100
AcDbSymbolTableRecord
100
AcDbLinetypeTableRecord
  2
LINE_15
 70
     0
  3
________________________________
 72
    65
 73
     0
 40
0.0
  0
LTYPE
  5
4E
330
5
100
AcDbSymbolTableRecord
100
AcDbLinetypeTableRecord
  2
LINE_16
 70
     0
  3
________________________________
 72
    65
 73
     0
 40
0.0
  0
LTYPE
  5
4F
330
5
100
AcDbSymbolTableRecord
100
AcDbLinetypeTableRecord
  2
LINE_17
 70
     0
  3
________________________________
 72
    65
 73
     0
 40
0.0
  0
LTYPE
  5
50
330
5
100
AcDbSymbolTableRecord
100
AcDbLinetypeTableRecord
  2
LINE_18
 70
     0
  3
________________________________
 72
    65
 73
     0
 40
0.0
  0
LTYPE
  5
51
330
5
100
AcDbSymbolTableRecord
100
AcDbLinetypeTableRecord
  2
INVISIBLE
 70
     0
  3
________________________________
 72
    65
 73
     0
 40
0.0
  0
LTYPE
  5
52
330
5
100
AcDbSymbolTableRecord
100
AcDbLinetypeTableRecord
  2
LINE_19
 70
     0
  3
________________________________
 72
    65
 73
     0
 40
0.0
  0
LTYPE
  5
53
330
5
100
AcDbSymbolTableRecord
100
AcDbLinetypeTableRecord
  2
LINE_20
 70
     0
  3
________________________________
 72
    65
 73
     0
 40
0.0
  0
ENDTAB
  0
TABLE
  2
LAYER
  5
2
330
0
100
AcDbSymbolTable
 70
     4
  0
LAYER
  5
10
330
2
100
AcDbSymbolTableRecord
100
AcDbLayerTableRecord
  2
0
 70
     0
 62
     7
  6
CONTINUOUS
  0
LAYER
  5
55
330
2
100
AcDbSymbolTableRecord
100
AcDbLayerTableRecord
  2
DEFAULT
 70
     0
 62
     1
  6
CONTINUOUS
  0
LAYER
  5
58
330
2
100
AcDbSymbolTableRecord
100
AcDbLayerTableRecord
  2
A
 70
     0
 62
     1
  6
CONTINUOUS
  0
LAYER
  5
2AD
330
2
100
AcDbSymbolTableRecord
100
AcDbLayerTableRecord
  2
B
 70
     0
 62
     1
  6
CONTINUOUS
  0
ENDTAB
  0
TABLE
  2
STYLE
  5
3
330
0
100
AcDbSymbolTable
 70
     4
  0
STYLE
  5
11
330
3
100
AcDbSymbolTableRecord
100
AcDbTextStyleTableRecord
  2
STANDARD
 70
     0
 40
0.0
 41
1.0
 50
0.0
 71
     0
 42
0.2
  3
txt
  4

  0
STYLE
  5
9D
330
3
100
AcDbSymbolTableRecord
100
AcDbTextStyleTableRecord
  2
POLICE1
 70
     0
 40
2.73846154101193
 41
0.59375
 50
0.0
 71
     0
 42
0.5
  3
TXT
  4

1001
ACAD
1000
TXT
1071
        0
  0
STYLE
  5
272
330
3
100
AcDbSymbolTableRecord
100
AcDbTextStyleTableRecord
  2
ARIAL
 70
     0
 40
2.325
 41
0.9659999561309813
 50
0.0
 71
     0
 42
0.5
  3
ARIAL.TTF
  4

1001
ACAD
1000
Arial
1071
       34
  0
STYLE
  5
2AF
330
3
100
AcDbSymbolTableRecord
100
AcDbTextStyleTableRecord
  2
ARIAL_BOLD
 70
     0
 40
2.989285714285714
 41
1.207499945163727
 50
0.0
 71
     0
 42
0.5
  3
ARIALBD.TTF
  4

1001
ACAD
1000
Arial
1071
 33554466
  0
ENDTAB
  0
TABLE
  2
VIEW
  5
6
330
0
100
AcDbSymbolTable
 70
     1
  0
VIEW
  5
54
330
6
100
AcDbSymbolTableRecord
100
AcDbViewTableRecord
  2
VIEW
 70
     0
 40
1.0
 10
0.0
 20
0.0
 41
1.0
 11
0.0
 21
0.0
 31
1.0
 12
0.0
 22
0.0
 32
0.0
 42
50.0
 43
0.0
 44
0.0
 50
0.0
 71
     0
  0
ENDTAB
  0
TABLE
  2
UCS
  5
7
330
0
100
AcDbSymbolTable
 70
     0
  0
ENDTAB
  0
TABLE
  2
APPID
  5
9
330
0
100
AcDbSymbolTable
 70
     1
  0
APPID
  5
12
330
9
100
AcDbSymbolTableRecord
100
AcDbRegAppTableRecord
  2
ACAD
 70
     0
  0
ENDTAB
  0
TABLE
  2
DIMSTYLE
  5
A
330
0
100
AcDbSymbolTable
 70
     1
  0
DIMSTYLE
105
27
330
A
100
AcDbSymbolTableRecord
100
AcDbDimStyleTableRecord
  2
STANDARD
 70
     0
  3

  4

  5

  6

  7

 40
1.0
 41
0.18
 42
0.0625
 43
0.38
 44
0.18
 45
0.0
 46
0.0
 47
0.0
 48
0.0
140
0.18
141
0.09
142
0.0
143
25.4
144
1.0
145
0.0
146
1.0
147
0.09
 71
     0
 72
     0
 73
     1
 74
     1
 75
     0
 76
     0
 77
     0
 78
     0
170
     0
171
     2
172
     0
173
     0
174
     0
175
     0
176
     0
177
     0
178
     0
270
     2
271
     4
272
     4
273
     2
274
     2
340
11
275
     0
280
     0
281
     0
282
     0
283
     1
284
     0
285
     0
286
     0
287
     3
288
     0
  0
ENDTAB
  0
TABLE
  2
BLOCK_RECORD
  5
1
330
0
100
AcDbSymbolTable
 70
     3
  0
BLOCK_RECORD
  5
1F
330
1
100
AcDbSymbolTableRecord
100
AcDbBlockTableRecord
  2
*MODEL_SPACE
  0
BLOCK_RECORD
  5
1B
330
1
100
AcDbSymbolTableRecord
100
AcDbBlockTableRecord
  2
*PAPER_SPACE
  0
BLOCK_RECORD
  5
56
330
1
100
AcDbSymbolTableRecord
100
AcDbBlockTableRecord
  2
1
  0
BLOCK_RECORD
  5
2CC
330
1
100
AcDbSymbolTableRecord
100
AcDbBlockTableRecord
  2
_VARMECA20_VARIATEUR_0_5_0
  0
ENDTAB
  0
ENDSEC
  0
SECTION
  2
BLOCKS
  0
BLOCK
  5
20
330
1F
100
AcDbEntity
  8
0
100
AcDbBlockBegin
  2
*MODEL_SPACE
 70
     0
 71
     0
 10
0.0
 20
0.0
 30
0.0
  3
*MODEL_SPACE
  1

  0
ENDBLK
  5
21
330
1F
100
AcDbEntity
  8
0
100
AcDbBlockEnd
  0
BLOCK
  5
1C
330
1B
100
AcDbEntity
 67
     1
  8
0
100
AcDbBlockBegin
  2
*PAPER_SPACE
 70
     0
 71
     0
 10
0.0
 20
0.0
 30
0.0
  3
*PAPER_SPACE
  1

  0
ENDBLK
  5
1D
330
1B
100
AcDbEntity
 67
     1
  8
0
100
AcDbBlockEnd
  0
BLOCK
  5
2A9
330
56
100
AcDbEntity
  8
0
100
AcDbBlockBegin
  2
1
 70
     2
 71
     0
 10
0.0
 20
0.0
 30
0.0
  3
1
  1

  0
LINE
  5
57
330
56
100
AcDbEntity
  8
A
  6
MOYEN
 62
     4
100
AcDbLine
 10
0.0
 20
20.0
 30
0.0
 11
420.0
 21
20.0
 31
0.0
  0
LINE
  5
59
330
56
100
AcDbEntity
  8
A
  6
MOYEN
 62
     4
100
AcDbLine
 10
275.0
 20
0.0
 30
0.0
 11
275.0
 21
20.0
 31
0.0
  0
LINE
  5
5A
330
56
100
AcDbEntity
  8
A
  6
MOYEN
 62
     4
100
AcDbLine
 10
395.0
 20
0.0
 30
0.0
 11
395.0
 21
20.0
 31
0.0
  0
LINE
  5
5B
330
56
100
AcDbEntity
  8
A
  6
MOYEN
 62
     4
100
AcDbLine
 10
275.0
 20
8.0
 30
0.0
 11
190.0
 21
8.0
 31
0.0
  0
LINE
  5
5C
330
56
100
AcDbEntity
  8
A
  6
MOYEN
 62
     4
100
AcDbLine
 10
70.0
 20
0.0
 30
0.0
 11
70.0
 21
20.0
 31
0.0
  0
LINE
  5
5D
330
56
100
AcDbEntity
  8
A
  6
MOYEN
 62
     4
100
AcDbLine
 10
70.0
 20
6.750000476837158
 30
0.0
 11
110.0
 21
6.750000476837158
 31
0.0
  0
LINE
  5
5E
330
56
100
AcDbEntity
  8
A
  6
MOYEN
 62
     4
100
AcDbLine
 10
110.0
 20
13.35000038146973
 30
0.0
 11
70.0
 21
13.35000038146973
 31
0.0
  0
LINE
  5
5F
330
56
100
AcDbEntity
  8
A
  6
MOYEN
 62
     4
100
AcDbLine
 10
190.0
 20
20.0
 30
0.0
 11
190.0
 21
0.0
 31
0.0
  0
LINE
  5
60
330
56
100
AcDbEntity
  8
A
  6
MOYEN
 62
     4
100
AcDbLine
 10
110.0
 20
0.0
 30
0.0
 11
110.0
 21
20.0
 31
0.0
  0
LINE
  5
61
330
56
100
AcDbEntity
  8
A
  6
MOYEN
 62
     4
100
AcDbLine
 10
110.0
 20
16.0
 30
0.0
 11
190.0
 21
16.0
 31
0.0
  0
LINE
  5
62
330
56
100
AcDbEntity
  8
A
  6
MOYEN
 62
     4
100
AcDbLine
 10
110.0
 20
12.0
 30
0.0
 11
190.0
 21
12.0
 31
0.0
  0
LINE
  5
63
330
56
100
AcDbEntity
  8
A
  6
MOYEN
 62
     4
100
AcDbLine
 10
110.0
 20
8.0
 30
0.0
 11
190.0
 21
8.0
 31
0.0
  0
LINE
  5
64
330
56
100
AcDbEntity
  8
A
  6
MOYEN
 62
     4
100
AcDbLine
 10
110.0
 20
4.0
 30
0.0
 11
190.0
 21
4.0
 31
0.0
  0
LINE
  5
65
330
56
100
AcDbEntity
  8
A
  6
MOYEN
 62
     4
100
AcDbLine
 10
118.0
 20
0.0
 30
0.0
 11
118.0
 21
20.0
 31
0.0
  0
LINE
  5
66
330
56
100
AcDbEntity
  8
A
  6
MOYEN
 62
     4
100
AcDbLine
 10
132.0
 20
0.0
 30
0.0
 11
132.0
 21
20.0
 31
0.0
  0
LINE
  5
67
330
56
100
AcDbEntity
  8
A
  6
MOYEN
 62
     4
100
AcDbLine
 10
180.0
 20
0.0
 30
0.0
 11
180.0
 21
20.0
 31
0.0
  0
POLYLINE
  5
68
330
56
100
AcDbEntity
  8
A
  6
MOYEN
 62
     4
100
AcDb2dPolyline
 66
     1
 10
0.0
 20
0.0
 30
0.0
  0
VERTEX
  5
6A
330
68
100
AcDbEntity
  8
A
  6
MOYEN
 62
     4
100
AcDbVertex
100
AcDb2dVertex
 10
398.0
 20
6.0
 30
0.0
  0
VERTEX
  5
6B
330
68
100
AcDbEntity
  8
A
  6
MOYEN
 62
     4
100
AcDbVertex
100
AcDb2dVertex
 10
398.0
 20
8.0
 30
0.0
  0
VERTEX
  5
6C
330
68
100
AcDbEntity
  8
A
  6
MOYEN
 62
     4
100
AcDbVertex
100
AcDb2dVertex
 10
396.0
 20
7.0
 30
0.0
  0
VERTEX
  5
6D
330
68
100
AcDbEntity
  8
A
  6
MOYEN
 62
     4
100
AcDbVertex
100
AcDb2dVertex
 10
398.0
 20
6.0
 30
0.0
  0
SEQEND
  5
69
330
68
100
AcDbEntity
  8
A
  6
MOYEN
  0
HATCH
  5
6E
330
56
100
AcDbEntity
  8
A
  6
MOYEN
 62
     4
100
AcDbHatch
 10
0.0
 20
0.0
 30
0.0
210
0.0
220
0.0
230
1.0
  2
SOLID
 70
     1
 71
     0
 91
        1
 92
        0
 93
        3
 72
     1
 10
398.0
 20
6.0
 11
398.0
 21
8.0
 72
     1
 10
398.0
 20
8.0
 11
396.0
 21
7.0
 72
     1
 10
396.0
 20
7.0
 11
398.0
 21
6.0
 97
        0
 75
     0
 76
     1
 98
        0
  0
POLYLINE
  5
6F
330
56
100
AcDbEntity
  8
A
  6
MOYEN
 62
     4
100
AcDb2dPolyline
 66
     1
 10
0.0
 20
0.0
 30
0.0
  0
VERTEX
  5
71
330
6F
100
AcDbEntity
  8
A
  6
MOYEN
 62
     4
100
AcDbVertex
100
AcDb2dVertex
 10
419.0
 20
7.0
 30
0.0
  0
VERTEX
  5
72
330
6F
100
AcDbEntity
  8
A
  6
MOYEN
 62
     4
100
AcDbVertex
100
AcDb2dVertex
 10
417.0
 20
8.0
 30
0.0
  0
VERTEX
  5
73
330
6F
100
AcDbEntity
  8
A
  6
MOYEN
 62
     4
100
AcDbVertex
100
AcDb2dVertex
 10
417.0
 20
6.0
 30
0.0
  0
VERTEX
  5
74
330
6F
100
AcDbEntity
  8
A
  6
MOYEN
 62
     4
100
AcDbVertex
100
AcDb2dVertex
 10
419.0
 20
7.0
 30
0.0
  0
SEQEND
  5
70
330
6F
100
AcDbEntity
  8
A
  6
MOYEN
  0
HATCH
  5
75
330
56
100
AcDbEntity
  8
A
  6
MOYEN
 62
     4
100
AcDbHatch
 10
0.0
 20
0.0
 30
0.0
210
0.0
220
0.0
230
1.0
  2
SOLID
 70
     1
 71
     0
 91
        1
 92
        0
 93
        3
 72
     1
 10
419.0
 20
7.0
 11
417.0
 21
8.0
 72
     1
 10
417.0
 20
8.0
 11
417.0
 21
6.0
 72
     1
 10
417.0
 20
6.0
 11
419.0
 21
7.0
 97
        0
 75
     0
 76
     1
 98
        0
  0
LINE
  5
76
330
56
100
AcDbEntity
  8
A
  6
MOYEN
 62
     4
100
AcDbLine
 10
395.0
 20
4.0
 30
0.0
 11
420.0
 21
4.0
 31
0.0
  0
ATTDEF
  5
77
330
56
100
AcDbEntity
  8
A
  6
FIN
 62
     3
100
AcDbText
 10
222.5
 20
3.005357142857143
 30
0.0
 40
2.989285714285714
  1

 41
1.207499945163727
 11
222.5
 21
4.5
 31
0.0
100
AcDbAttributeDefinition
  3

  2
$:11
 70
     0
 74
     2
  0
ATTDEF
  5
78
330
56
100
AcDbEntity
  8
A
  6
FIN
 62
     2
100
AcDbText
 10
232.5
 20
15.0
 30
0.0
 40
3.321428571428572
  1

 41
0.9659999561309813
 72
     4
 11
232.5
 21
15.0
 31
0.0
100
AcDbAttributeDefinition
  3

  2
$:10
 70
     0
 74
     2
  0
ATTDEF
  5
79
330
56
100
AcDbEntity
  8
A
  6
FIN
 62
     2
100
AcDbText
 10
335.0
 20
16.0
 30
0.0
 40
3.321428571428572
  1

 41
0.9659999561309813
 72
     4
 11
335.0
 21
16.0
 31
0.0
100
AcDbAttributeDefinition
  3

  2
$:09
 70
     0
 74
     2
  0
ATTDEF
  5
7A
330
56
100
AcDbEntity
  8
A
  6
FIN
 62
     7
100
AcDbText
 10
335.0
 20
9.5
 30
0.0
 40
2.657142857142858
  1

 41
0.9659999561309813
 72
     4
 11
335.0
 21
9.5
 31
0.0
100
AcDbAttributeDefinition
  3

  2
$FOLTITRE
 70
     0
 74
     2
  0
ATTDEF
  5
7B
330
56
100
AcDbEntity
  8
A
  6
FIN
 62
     7
100
AcDbText
 10
335.0
 20
5.0
 30
0.0
 40
2.657142857142858
  1

 41
0.9659999561309813
 72
     4
 11
335.0
 21
5.0
 31
0.0
100
AcDbAttributeDefinition
  3

  2
$FOLSSTITRE
 70
     0
 74
     2
  0
ATTDEF
  5
7C
330
56
100
AcDbEntity
  8
A
  6
FIN
 62
     4
100
AcDbText
 10
407.5
 20
13.0
 30
0.0
 40
3.985714285714286
  1

 41
1.086749950647354
 72
     4
 11
407.5
 21
13.0
 31
0.0
100
AcDbAttributeDefinition
  3

  2
$FOLNUM
 70
     0
 74
     2
  0
ATTDEF
  5
7D
330
56
100
AcDbEntity
  8
A
  6
FIN
 62
     2
100
AcDbText
 10
90.0
 20
16.5
 30
0.0
 40
1.992857142857143
  1

 41
0.9659999561309813
 72
     4
 11
90.0
 21
16.5
 31
0.0
100
AcDbAttributeDefinition
  3

  2
$:13
 70
     0
 74
     2
  0
ATTDEF
  5
7E
330
56
100
AcDbEntity
  8
A
  6
FIN
 62
     2
100
AcDbText
 10
90.0
 20
9.75
 30
0.0
 40
1.992857142857143
  1

 41
0.9659999561309813
 72
     4
 11
90.0
 21
9.75
 31
0.0
100
AcDbAttributeDefinition
  3

  2
$:14
 70
     0
 74
     2
  0
ATTDEF
  5
7F
330
56
100
AcDbEntity
  8
A
  6
FIN
 62
     2
100
AcDbText
 10
90.0
 20
1.723678571428571
 30
0.0
 40
2.052642857142857
  1

 41
0.9659999561309813
 72
     2
 11
90.0
 21
2.75
 31
0.0
100
AcDbAttributeDefinition
  3

  2
$:DATEAFFCREA
 70
     0
 74
     2
  0
ATTDEF
  5
80
330
56
100
AcDbEntity
  8
A
  6
FIN
 62
     7
100
AcDbText
 10
114.25
 20
6.5
 30
0.0
 40
1.660714285714286
  1

 41
0.9659999561309813
 72
     4
 11
114.25
 21
6.5
 31
0.0
100
AcDbAttributeDefinition
  3

  2
$REV_IND:X
 70
     0
 74
     2
  0
ATTDEF
  5
81
330
56
100
AcDbEntity
  8
A
  6
FIN
 62
     7
100
AcDbText
 10
114.25
 20
10.5
 30
0.0
 40
1.660714285714286
  1

 41
0.9659999561309813
 72
     4
 11
114.25
 21
10.5
 31
0.0
100
AcDbAttributeDefinition
  3

  2
$REV_IND:X+1
 70
     0
 74
     2
  0
ATTDEF
  5
82
330
56
100
AcDbEntity
  8
A
  6
FIN
 62
     7
100
AcDbText
 10
114.25
 20
14.5
 30
0.0
 40
1.660714285714286
  1

 41
0.9659999561309813
 72
     4
 11
114.25
 21
14.5
 31
0.0
100
AcDbAttributeDefinition
  3

  2
$REV_IND:X+2
 70
     0
 74
     2
  0
ATTDEF
  5
83
330
56
100
AcDbEntity
  8
A
  6
FIN
 62
     7
100
AcDbText
 10
114.25
 20
18.5
 30
0.0
 40
1.660714285714286
  1

 41
0.9659999561309813
 72
     4
 11
114.25
 21
18.5
 31
0.0
100
AcDbAttributeDefinition
  3

  2
$REV_IND:X+3
 70
     0
 74
     2
  0
ATTDEF
  5
84
330
56
100
AcDbEntity
  8
A
  6
FIN
 62
     7
100
AcDbText
 10
125.25
 20
6.5
 30
0.0
 40
1.660714285714286
  1

 41
0.9659999561309813
 72
     4
 11
125.25
 21
6.5
 31
0.0
100
AcDbAttributeDefinition
  3

  2
$REV_DATE:X
 70
     0
 74
     2
  0
ATTDEF
  5
85
330
56
100
AcDbEntity
  8
A
  6
FIN
 62
     7
100
AcDbText
 10
125.25
 20
10.5
 30
0.0
 40
1.660714285714286
  1

 41
0.9659999561309813
 72
     4
 11
125.25
 21
10.5
 31
0.0
100
AcDbAttributeDefinition
  3

  2
$REV_DATE:X+1
 70
     0
 74
     2
  0
ATTDEF
  5
86
330
56
100
AcDbEntity
  8
A
  6
FIN
 62
     7
100
AcDbText
 10
125.25
 20
14.5
 30
0.0
 40
1.660714285714286
  1

 41
0.9659999561309813
 72
     4
 11
125.25
 21
14.5
 31
0.0
100
AcDbAttributeDefinition
  3

  2
$REV_DATE:X+2
 70
     0
 74
     2
  0
ATTDEF
  5
87
330
56
100
AcDbEntity
  8
A
  6
FIN
 62
     7
100
AcDbText
 10
125.25
 20
18.5
 30
0.0
 40
1.660714285714286
  1

 41
0.9659999561309813
 72
     4
 11
125.25
 21
18.5
 31
0.0
100
AcDbAttributeDefinition
  3

  2
$REV_DATE:X+3
 70
     0
 74
     2
  0
ATTDEF
  5
88
330
56
100
AcDbEntity
  8
A
  6
FIN
 62
     7
100
AcDbText
 10
134.0
 20
5.669642857142857
 30
0.0
 40
1.660714285714286
  1

 41
0.9659999561309813
 11
134.0
 21
6.5
 31
0.0
100
AcDbAttributeDefinition
  3

  2
$REV_LIB:X
 70
     0
 74
     2
  0
ATTDEF
  5
89
330
56
100
AcDbEntity
  8
A
  6
FIN
 62
     7
100
AcDbText
 10
134.0
 20
9.669642857142858
 30
0.0
 40
1.660714285714286
  1

 41
0.9659999561309813
 11
134.0
 21
10.5
 31
0.0
100
AcDbAttributeDefinition
  3

  2
$REV_LIB:X+1
 70
     0
 74
     2
  0
ATTDEF
  5
8A
330
56
100
AcDbEntity
  8
A
  6
FIN
 62
     7
100
AcDbText
 10
134.0
 20
13.66964285714286
 30
0.0
 40
1.660714285714286
  1

 41
0.9659999561309813
 11
134.0
 21
14.5
 31
0.0
100
AcDbAttributeDefinition
  3

  2
$REV_LIB:X+2
 70
     0
 74
     2
  0
ATTDEF
  5
8B
330
56
100
AcDbEntity
  8
A
  6
FIN
 62
     7
100
AcDbText
 10
134.0
 20
17.66964285714286
 30
0.0
 40
1.660714285714286
  1

 41
0.9659999561309813
 11
134.0
 21
18.5
 31
0.0
100
AcDbAttributeDefinition
  3

  2
$REV_LIB:X+3
 70
     0
 74
     2
  0
ATTDEF
  5
8C
330
56
100
AcDbEntity
  8
A
  6
FIN
 62
     7
100
AcDbText
 10
185.0
 20
6.5
 30
0.0
 40
1.660714285714286
  1

 41
0.9659999561309813
 72
     4
 11
185.0
 21
6.5
 31
0.0
100
AcDbAttributeDefinition
  3

  2
$REV_NOM:X
 70
     0
 74
     2
  0
ATTDEF
  5
8D
330
56
100
AcDbEntity
  8
A
  6
FIN
 62
     7
100
AcDbText
 10
185.0
 20
10.5
 30
0.0
 40
1.660714285714286
  1

 41
0.9659999561309813
 72
     4
 11
185.0
 21
10.5
 31
0.0
100
AcDbAttributeDefinition
  3

  2
$REV_NOM:X+1
 70
     0
 74
     2
  0
ATTDEF
  5
8E
330
56
100
AcDbEntity
  8
A
  6
FIN
 62
     7
100
AcDbText
 10
185.0
 20
14.5
 30
0.0
 40
1.660714285714286
  1

 41
0.9659999561309813
 72
     4
 11
185.0
 21
14.5
 31
0.0
100
AcDbAttributeDefinition
  3

  2
$REV_NOM:X+2
 70
     0
 74
     2
  0
ATTDEF
  5
8F
330
56
100
AcDbEntity
  8
A
  6
FIN
 62
     7
100
AcDbText
 10
185.0
 20
18.5
 30
0.0
 40
1.660714285714286
  1

 41
0.9659999561309813
 72
     4
 11
185.0
 21
18.5
 31
0.0
100
AcDbAttributeDefinition
  3

  2
$REV_NOM:X+3
 70
     0
 74
     2
  0
ATTDEF
  5
90
330
56
100
AcDbEntity
  8
A
  6
FIN
 62
     4
100
AcDbText
 10
414.25
 20
1.386428571428571
 30
0.0
 40
1.727142857142857
  1

 41
0.9659999561309813
 11
414.25
 21
2.25
 31
0.0
100
AcDbAttributeDefinition
  3

  2
$VERSION
 70
     0
 74
     2
  0
ATTDEF
  5
91
330
56
100
AcDbEntity
  8
A
  6
FIN
 62
     4
100
AcDbText
 10
400.0
 20
6.171428571428571
 30
0.0
 40
2.657142857142858
  1

 41
0.9659999561309813
 11
400.0
 21
7.5
 31
0.0
100
AcDbAttributeDefinition
  3

  2
$FOLIO_PREC
 70
     0
 74
     2
  0
ATTDEF
  5
92
330
56
100
AcDbEntity
  8
A
  6
FIN
 62
     4
100
AcDbText
 10
415.0
 20
6.171428571428571
 30
0.0
 40
2.657142857142858
  1

 41
0.9659999561309813
 72
     2
 11
415.0
 21
7.5
 31
0.0
100
AcDbAttributeDefinition
  3

  2
$FOLIO_SUIV
 70
     0
 74
     2
  0
ATTDEF
  5
93
330
56
100
AcDbEntity
  8
A
  6
FIN
 62
     7
100
AcDbText
 10
5.0
 20
26.50535714285714
 30
0.0
 40
2.989285714285714
  1

 41
0.9659999561309813
 11
5.0
 21
28.0
 31
0.0
100
AcDbAttributeDefinition
  3

  2
$FONCTION
 70
     0
 74
     2
  0
ATTDEF
  5
94
330
56
100
AcDbEntity
  8
A
  6
FIN
 62
     7
100
AcDbText
 10
5.0
 20
22.00535714285714
 30
0.0
 40
2.989285714285714
  1

 41
0.9659999561309813
 11
5.0
 21
23.5
 31
0.0
100
AcDbAttributeDefinition
  3

  2
$LOCALISATION
 70
     0
 74
     2
  0
LINE
  5
95
330
56
100
AcDbEntity
  8
A
  6
FIN
 62
     7
100
AcDbLine
 10
37.18277740478516
 20
19.53468894958496
 30
0.0
 11
37.30900192260742
 21
19.53468894958496
 31
0.0
  0
LINE
  5
96
330
56
100
AcDbEntity
  8
A
  6
FIN
 62
     7
100
AcDbLine
 10
37.18277740478516
 20
19.53468894958496
 30
0.0
 11
37.18277740478516
 21
19.2822437286377
 31
0.0
  0
LINE
  5
97
330
56
100
AcDbEntity
  8
A
  6
FIN
 62
     7
100
AcDbLine
 10
37.18277740478516
 20
19.2822437286377
 30
0.0
 11
37.18277740478516
 21
19.2822437286377
 31
0.0
  0
LINE
  5
98
330
56
100
AcDbEntity
  8
A
  6
FIN
 62
     7
100
AcDbLine
 10
37.18277740478516
 20
19.2822437286377
 30
0.0
 11
37.18277740478516
 21
19.02980041503906
 31
0.0
  0
LINE
  5
99
330
56
100
AcDbEntity
  8
A
  6
FIN
 62
     7
100
AcDbLine
 10
37.18277740478516
 20
19.2822437286377
 30
0.0
 11
37.30900192260742
 21
19.2822437286377
 31
0.0
  0
ARC
  5
9A
330
56
100
AcDbEntity
  8
A
  6
FIN
 62
     7
100
AcDbCircle
 10
37.30900192260742
 20
19.40846633911133
 30
0.0
 40
0.1262226104736328
100
AcDbArc
 50
270.0000100179126
 51
90.0
  0
LINE
  5
9B
330
56
100
AcDbEntity
  8
A
  6
FIN
 62
     7
100
AcDbLine
 10
37.30900192260742
 20
19.2822437286377
 30
0.0
 11
37.44986724853516
 21
19.03825569152832
 31
0.0
  0
CIRCLE
  5
9C
330
56
100
AcDbEntity
  8
A
  6
FIN
 62
     7
100
AcDbCircle
 10
37.30900192260742
 20
19.2822437286377
 30
0.0
 40
0.2822418212890625
  0
TEXT
  5
9E
330
56
100
AcDbEntity
  8
A
  6
FIN
 62
     7
100
AcDbText
 10
5.478717803955078
 20
2.951361179351807
 30
0.0
 40
2.73846154101193
  1
ANGOULEME FRANCE
 41
0.59375
  7
POLICE1
100
AcDbText
  0
POLYLINE
  5
9F
330
56
100
AcDbEntity
  8
A
  6
FIN
 62
     7
100
AcDb2dPolyline
 66
     1
 10
0.0
 20
0.0
 30
0.0
  0
VERTEX
  5
A1
330
9F
100
AcDbEntity
  8
A
  6
FIN
 62
     7
100
AcDbVertex
100
AcDb2dVertex
 10
2.40533447265625
 20
8.063796997070313
 30
0.0
  0
VERTEX
  5
A2
330
9F
100
AcDbEntity
  8
A
  6
FIN
 62
     7
100
AcDbVertex
100
AcDb2dVertex
 10
14.37387084960938
 20
8.063796997070313
 30
0.0
  0
SEQEND
  5
A0
330
9F
100
AcDbEntity
  8
A
  6
FIN
  0
POLYLINE
  5
A3
330
56
100
AcDbEntity
  8
A
  6
FIN
 62
     7
100
AcDb2dPolyline
 66
     1
 10
0.0
 20
0.0
 30
0.0
  0
VERTEX
  5
A5
330
A3
100
AcDbEntity
  8
A
  6
FIN
 62
     7
100
AcDbVertex
100
AcDb2dVertex
 10
6.61016845703125
 20
11.62205505371094
 30
0.0
  0
VERTEX
  5
A6
330
A3
100
AcDbEntity
  8
A
  6
FIN
 62
     7
100
AcDbVertex
100
AcDb2dVertex
 10
11.46298217773438
 20
11.62205505371094
 30
0.0
  0
SEQEND
  5
A4
330
A3
100
AcDbEntity
  8
A
  6
FIN
  0
POLYLINE
  5
A7
330
56
100
AcDbEntity
  8
A
  6
FIN
 62
     7
100
AcDb2dPolyline
 66
     1
 10
0.0
 20
0.0
 30
0.0
  0
VERTEX
  5
A9
330
A7
100
AcDbEntity
  8
A
  6
FIN
 62
     7
100
AcDbVertex
100
AcDb2dVertex
 10
8.551090240478516
 20
15.18051910400391
 30
0.0
  0
VERTEX
  5
AA
330
A7
100
AcDbEntity
  8
A
  6
FIN
 62
     7
100
AcDbVertex
100
AcDb2dVertex
 10
11.46298217773438
 20
11.62205505371094
 30
0.0
  0
SEQEND
  5
A8
330
A7
100
AcDbEntity
  8
A
  6
FIN
  0
POLYLINE
  5
AB
330
56
100
AcDbEntity
  8
A
  6
FIN
 62
     7
100
AcDb2dPolyline
 66
     1
 10
0.0
 20
0.0
 30
0.0
  0
VERTEX
  5
AD
330
AB
100
AcDbEntity
  8
A
  6
FIN
 62
     7
100
AcDbVertex
100
AcDb2dVertex
 10
17.60874557495117
 20
10.32810211181641
 30
0.0
  0
VERTEX
  5
AE
330
AB
100
AcDbEntity
  8
A
  6
FIN
 62
     7
100
AcDbVertex
100
AcDb2dVertex
 10
17.28576278686523
 20
10.65169525146484
 30
0.0
  0
SEQEND
  5
AC
330
AB
100
AcDbEntity
  8
A
  6
FIN
  0
POLYLINE
  5
AF
330
56
100
AcDbEntity
  8
A
  6
FIN
 62
     7
100
AcDb2dPolyline
 66
     1
 10
0.0
 20
0.0
 30
0.0
  0
VERTEX
  5
B1
330
AF
100
AcDbEntity
  8
A
  6
FIN
 62
     7
100
AcDbVertex
100
AcDb2dVertex
 10
18.74120330810547
 20
12.43082427978516
 30
0.0
  0
VERTEX
  5
B2
330
AF
100
AcDbEntity
  8
A
  6
FIN
 62
     7
100
AcDbVertex
100
AcDb2dVertex
 10
18.63501739501953
 20
12.50799560546875
 30
0.0
  0
VERTEX
  5
B3
330
AF
100
AcDbEntity
  8
A
  6
FIN
 62
     7
100
AcDbVertex
100
AcDb2dVertex
 10
18.52072906494141
 20
12.57256317138672
 30
0.0
  0
VERTEX
  5
B4
330
AF
100
AcDbEntity
  8
A
  6
FIN
 62
     7
100
AcDbVertex
100
AcDb2dVertex
 10
18.39982604980469
 20
12.62367248535156
 30
0.0
  0
VERTEX
  5
B5
330
AF
100
AcDbEntity
  8
A
  6
FIN
 62
     7
100
AcDbVertex
100
AcDb2dVertex
 10
18.27387619018555
 20
12.66066741943359
 30
0.0
  0
VERTEX
  5
B6
330
AF
100
AcDbEntity
  8
A
  6
FIN
 62
     7
100
AcDbVertex
100
AcDb2dVertex
 10
18.14453506469727
 20
12.68305206298828
 30
0.0
  0
VERTEX
  5
B7
330
AF
100
AcDbEntity
  8
A
  6
FIN
 62
     7
100
AcDbVertex
100
AcDb2dVertex
 10
18.01348114013672
 20
12.6905517578125
 30
0.0
  0
VERTEX
  5
B8
330
AF
100
AcDbEntity
  8
A
  6
FIN
 62
     7
100
AcDbVertex
100
AcDb2dVertex
 10
18.01348114013672
 20
12.6905517578125
 30
0.0
  0
VERTEX
  5
B9
330
AF
100
AcDbEntity
  8
A
  6
FIN
 62
     7
100
AcDbVertex
100
AcDb2dVertex
 10
17.90082550048828
 20
12.68502044677734
 30
0.0
  0
VERTEX
  5
BA
330
AF
100
AcDbEntity
  8
A
  6
FIN
 62
     7
100
AcDbVertex
100
AcDb2dVertex
 10
17.78925323486328
 20
12.66847229003906
 30
0.0
  0
VERTEX
  5
BB
330
AF
100
AcDbEntity
  8
A
  6
FIN
 62
     7
100
AcDbVertex
100
AcDb2dVertex
 10
17.67984008789063
 20
12.64106750488281
 30
0.0
  0
VERTEX
  5
BC
330
AF
100
AcDbEntity
  8
A
  6
FIN
 62
     7
100
AcDbVertex
100
AcDb2dVertex
 10
17.57364273071289
 20
12.60306549072266
 30
0.0
  0
VERTEX
  5
BD
330
AF
100
AcDbEntity
  8
A
  6
FIN
 62
     7
100
AcDbVertex
100
AcDb2dVertex
 10
17.4716796875
 20
12.55484008789063
 30
0.0
  0
VERTEX
  5
BE
330
AF
100
AcDbEntity
  8
A
  6
FIN
 62
     7
100
AcDbVertex
100
AcDb2dVertex
 10
17.37493515014648
 20
12.49684906005859
 30
0.0
  0
VERTEX
  5
BF
330
AF
100
AcDbEntity
  8
A
  6
FIN
 62
     7
100
AcDbVertex
100
AcDb2dVertex
 10
17.28433609008789
 20
12.42966461181641
 30
0.0
  0
VERTEX
  5
C0
330
AF
100
AcDbEntity
  8
A
  6
FIN
 62
     7
100
AcDbVertex
100
AcDb2dVertex
 10
17.20076370239258
 20
12.35391998291016
 30
0.0
  0
VERTEX
  5
C1
330
AF
100
AcDbEntity
  8
A
  6
FIN
 62
     7
100
AcDbVertex
100
AcDb2dVertex
 10
17.12501907348633
 20
12.27034759521484
 30
0.0
  0
VERTEX
  5
C2
330
AF
100
AcDbEntity
  8
A
  6
FIN
 62
     7
100
AcDbVertex
100
AcDb2dVertex
 10
17.05782318115234
 20
12.17974853515625
 30
0.0
  0
VERTEX
  5
C3
330
AF
100
AcDbEntity
  8
A
  6
FIN
 62
     7
100
AcDbVertex
100
AcDb2dVertex
 10
16.99983596801758
 20
12.0830078125
 30
0.0
  0
VERTEX
  5
C4
330
AF
100
AcDbEntity
  8
A
  6
FIN
 62
     7
100
AcDbVertex
100
AcDb2dVertex
 10
16.95161437988281
 20
11.98104095458984
 30
0.0
  0
VERTEX
  5
C5
330
AF
100
AcDbEntity
  8
A
  6
FIN
 62
     7
100
AcDbVertex
100
AcDb2dVertex
 10
16.91361236572266
 20
11.87483978271484
 30
0.0
  0
VERTEX
  5
C6
330
AF
100
AcDbEntity
  8
A
  6
FIN
 62
     7
100
AcDbVertex
100
AcDb2dVertex
 10
16.88620758056641
 20
11.76543426513672
 30
0.0
  0
VERTEX
  5
C7
330
AF
100
AcDbEntity
  8
A
  6
FIN
 62
     7
100
AcDbVertex
100
AcDb2dVertex
 10
16.86965942382813
 20
11.65385437011719
 30
0.0
  0
VERTEX
  5
C8
330
AF
100
AcDbEntity
  8
A
  6
FIN
 62
     7
100
AcDbVertex
100
AcDb2dVertex
 10
16.8641242980957
 20
11.54119873046875
 30
0.0
  0
VERTEX
  5
C9
330
AF
100
AcDbEntity
  8
A
  6
FIN
 62
     7
100
AcDbVertex
100
AcDb2dVertex
 10
16.8641242980957
 20
11.54119873046875
 30
0.0
  0
VERTEX
  5
CA
330
AF
100
AcDbEntity
  8
A
  6
FIN
 62
     7
100
AcDbVertex
100
AcDb2dVertex
 10
16.86967849731445
 20
11.42833709716797
 30
0.0
  0
VERTEX
  5
CB
330
AF
100
AcDbEntity
  8
A
  6
FIN
 62
     7
100
AcDbVertex
100
AcDb2dVertex
 10
16.88628768920898
 20
11.31657409667969
 30
0.0
  0
VERTEX
  5
CC
330
AF
100
AcDbEntity
  8
A
  6
FIN
 62
     7
100
AcDbVertex
100
AcDb2dVertex
 10
16.91379165649414
 20
11.20697784423828
 30
0.0
  0
VERTEX
  5
CD
330
AF
100
AcDbEntity
  8
A
  6
FIN
 62
     7
100
AcDbVertex
100
AcDb2dVertex
 10
16.95192718505859
 20
11.10060882568359
 30
0.0
  0
VERTEX
  5
CE
330
AF
100
AcDbEntity
  8
A
  6
FIN
 62
     7
100
AcDbVertex
100
AcDb2dVertex
 10
17.00032424926758
 20
10.99850463867188
 30
0.0
  0
VERTEX
  5
CF
330
AF
100
AcDbEntity
  8
A
  6
FIN
 62
     7
100
AcDbVertex
100
AcDb2dVertex
 10
17.05850982666016
 20
10.90164184570313
 30
0.0
  0
VERTEX
  5
D0
330
AF
100
AcDbEntity
  8
A
  6
FIN
 62
     7
100
AcDbVertex
100
AcDb2dVertex
 10
17.12592697143555
 20
10.81095123291016
 30
0.0
  0
VERTEX
  5
D1
330
AF
100
AcDbEntity
  8
A
  6
FIN
 62
     7
100
AcDbVertex
100
AcDb2dVertex
 10
17.20192337036133
 20
10.72733306884766
 30
0.0
  0
VERTEX
  5
D2
330
AF
100
AcDbEntity
  8
A
  6
FIN
 62
     7
100
AcDbVertex
100
AcDb2dVertex
 10
17.28576278686523
 20
10.65158081054688
 30
0.0
  0
VERTEX
  5
D3
330
AF
100
AcDbEntity
  8
A
  6
FIN
 62
     7
100
AcDbVertex
100
AcDb2dVertex
 10
17.28576278686523
 20
10.65158081054688
 30
0.0
  0
SEQEND
  5
B0
330
AF
100
AcDbEntity
  8
A
  6
FIN
  0
POLYLINE
  5
D4
330
56
100
AcDbEntity
  8
A
  6
FIN
 62
     7
100
AcDb2dPolyline
 66
     1
 10
0.0
 20
0.0
 30
0.0
  0
VERTEX
  5
D6
330
D4
100
AcDbEntity
  8
A
  6
FIN
 62
     7
100
AcDbVertex
100
AcDb2dVertex
 10
12.10995864868164
 20
15.18051910400391
 30
0.0
  0
VERTEX
  5
D7
330
D4
100
AcDbEntity
  8
A
  6
FIN
 62
     7
100
AcDbVertex
100
AcDb2dVertex
 10
15.66781616210938
 20
15.18051910400391
 30
0.0
  0
SEQEND
  5
D5
330
D4
100
AcDbEntity
  8
A
  6
FIN
  0
POLYLINE
  5
D8
330
56
100
AcDbEntity
  8
A
  6
FIN
 62
     7
100
AcDb2dPolyline
 66
     1
 10
0.0
 20
0.0
 30
0.0
  0
VERTEX
  5
DA
330
D8
100
AcDbEntity
  8
A
  6
FIN
 62
     7
100
AcDbVertex
100
AcDb2dVertex
 10
15.02084350585938
 20
11.62205505371094
 30
0.0
  0
VERTEX
  5
DB
330
D8
100
AcDbEntity
  8
A
  6
FIN
 62
     7
100
AcDbVertex
100
AcDb2dVertex
 10
12.10995864868164
 20
15.18051910400391
 30
0.0
  0
SEQEND
  5
D9
330
D8
100
AcDbEntity
  8
A
  6
FIN
  0
POLYLINE
  5
DC
330
56
100
AcDbEntity
  8
A
  6
FIN
 62
     7
100
AcDb2dPolyline
 66
     1
 10
0.0
 20
0.0
 30
0.0
  0
VERTEX
  5
DE
330
DC
100
AcDbEntity
  8
A
  6
FIN
 62
     7
100
AcDbVertex
100
AcDb2dVertex
 10
18.5797119140625
 20
14.20995330810547
 30
0.0
  0
VERTEX
  5
DF
330
DC
100
AcDbEntity
  8
A
  6
FIN
 62
     7
100
AcDbVertex
100
AcDb2dVertex
 10
18.90269470214844
 20
14.20995330810547
 30
0.0
  0
SEQEND
  5
DD
330
DC
100
AcDbEntity
  8
A
  6
FIN
  0
POLYLINE
  5
E0
330
56
100
AcDbEntity
  8
A
  6
FIN
 62
     7
100
AcDb2dPolyline
 66
     1
 10
0.0
 20
0.0
 30
0.0
  0
VERTEX
  5
E2
330
E0
100
AcDbEntity
  8
A
  6
FIN
 62
     7
100
AcDbVertex
100
AcDb2dVertex
 10
16.80027770996094
 20
14.20995330810547
 30
0.0
  0
VERTEX
  5
E3
330
E0
100
AcDbEntity
  8
A
  6
FIN
 62
     7
100
AcDbVertex
100
AcDb2dVertex
 10
18.5797119140625
 20
14.20995330810547
 30
0.0
  0
SEQEND
  5
E1
330
E0
100
AcDbEntity
  8
A
  6
FIN
  0
POLYLINE
  5
E4
330
56
100
AcDbEntity
  8
A
  6
FIN
 62
     7
100
AcDb2dPolyline
 66
     1
 10
0.0
 20
0.0
 30
0.0
  0
VERTEX
  5
E6
330
E4
100
AcDbEntity
  8
A
  6
FIN
 62
     7
100
AcDbVertex
100
AcDb2dVertex
 10
4.669240951538086
 20
18.73877716064453
 30
0.0
  0
VERTEX
  5
E7
330
E4
100
AcDbEntity
  8
A
  6
FIN
 62
     7
100
AcDbVertex
100
AcDb2dVertex
 10
7.904117584228516
 20
18.73877716064453
 30
0.0
  0
SEQEND
  5
E5
330
E4
100
AcDbEntity
  8
A
  6
FIN
  0
POLYLINE
  5
E8
330
56
100
AcDbEntity
  8
A
  6
FIN
 62
     7
100
AcDb2dPolyline
 66
     1
 10
0.0
 20
0.0
 30
0.0
  0
VERTEX
  5
EA
330
E8
100
AcDbEntity
  8
A
  6
FIN
 62
     7
100
AcDbVertex
100
AcDb2dVertex
 10
9.198066711425781
 20
18.73877716064453
 30
0.0
  0
VERTEX
  5
EB
330
E8
100
AcDbEntity
  8
A
  6
FIN
 62
     7
100
AcDbVertex
100
AcDb2dVertex
 10
8.551090240478516
 20
15.18051910400391
 30
0.0
  0
SEQEND
  5
E9
330
E8
100
AcDbEntity
  8
A
  6
FIN
  0
POLYLINE
  5
EC
330
56
100
AcDbEntity
  8
A
  6
FIN
 62
     7
100
AcDb2dPolyline
 66
     1
 10
0.0
 20
0.0
 30
0.0
  0
VERTEX
  5
EE
330
EC
100
AcDbEntity
  8
A
  6
FIN
 62
     7
100
AcDbVertex
100
AcDb2dVertex
 10
7.904117584228516
 20
18.73877716064453
 30
0.0
  0
VERTEX
  5
EF
330
EC
100
AcDbEntity
  8
A
  6
FIN
 62
     7
100
AcDbVertex
100
AcDb2dVertex
 10
6.61016845703125
 20
11.62205505371094
 30
0.0
  0
SEQEND
  5
ED
330
EC
100
AcDbEntity
  8
A
  6
FIN
  0
POLYLINE
  5
F0
330
56
100
AcDbEntity
  8
A
  6
FIN
 62
     7
100
AcDb2dPolyline
 66
     1
 10
0.0
 20
0.0
 30
0.0
  0
VERTEX
  5
F2
330
F0
100
AcDbEntity
  8
A
  6
FIN
 62
     7
100
AcDbVertex
100
AcDb2dVertex
 10
9.198066711425781
 20
18.73877716064453
 30
0.0
  0
VERTEX
  5
F3
330
F0
100
AcDbEntity
  8
A
  6
FIN
 62
     7
100
AcDbVertex
100
AcDb2dVertex
 10
16.31479263305664
 20
18.73877716064453
 30
0.0
  0
SEQEND
  5
F1
330
F0
100
AcDbEntity
  8
A
  6
FIN
  0
POLYLINE
  5
F4
330
56
100
AcDbEntity
  8
A
  6
FIN
 62
     7
100
AcDb2dPolyline
 66
     1
 10
0.0
 20
0.0
 30
0.0
  0
VERTEX
  5
F6
330
F4
100
AcDbEntity
  8
A
  6
FIN
 62
     7
100
AcDbVertex
100
AcDb2dVertex
 10
17.60874557495117
 20
18.73877716064453
 30
0.0
  0
VERTEX
  5
F7
330
F4
100
AcDbEntity
  8
A
  6
FIN
 62
     7
100
AcDbVertex
100
AcDb2dVertex
 10
16.80027770996094
 20
14.20995330810547
 30
0.0
  0
SEQEND
  5
F5
330
F4
100
AcDbEntity
  8
A
  6
FIN
  0
POLYLINE
  5
F8
330
56
100
AcDbEntity
  8
A
  6
FIN
 62
     7
100
AcDb2dPolyline
 66
     1
 10
0.0
 20
0.0
 30
0.0
  0
VERTEX
  5
FA
330
F8
100
AcDbEntity
  8
A
  6
FIN
 62
     7
100
AcDbVertex
100
AcDb2dVertex
 10
16.31479263305664
 20
18.73877716064453
 30
0.0
  0
VERTEX
  5
FB
330
F8
100
AcDbEntity
  8
A
  6
FIN
 62
     7
100
AcDbVertex
100
AcDb2dVertex
 10
15.66781616210938
 20
15.18051910400391
 30
0.0
  0
SEQEND
  5
F9
330
F8
100
AcDbEntity
  8
A
  6
FIN
  0
POLYLINE
  5
FC
330
56
100
AcDbEntity
  8
A
  6
FIN
 62
     7
100
AcDb2dPolyline
 66
     1
 10
0.0
 20
0.0
 30
0.0
  0
VERTEX
  5
FE
330
FC
100
AcDbEntity
  8
A
  6
FIN
 62
     7
100
AcDbVertex
100
AcDb2dVertex
 10
15.02084350585938
 20
11.62205505371094
 30
0.0
  0
VERTEX
  5
FF
330
FC
100
AcDbEntity
  8
A
  6
FIN
 62
     7
100
AcDbVertex
100
AcDb2dVertex
 10
14.37387084960938
 20
8.063796997070313
 30
0.0
  0
SEQEND
  5
FD
330
FC
100
AcDbEntity
  8
A
  6
FIN
  0
POLYLINE
  5
100
330
56
100
AcDbEntity
  8
A
  6
FIN
 62
     7
100
AcDb2dPolyline
 66
     1
 10
0.0
 20
0.0
 30
0.0
  0
VERTEX
  5
102
330
100
100
AcDbEntity
  8
A
  6
FIN
 62
     7
100
AcDbVertex
100
AcDb2dVertex
 10
15.9918098449707
 20
8.387176513671875
 30
0.0
  0
VERTEX
  5
103
330
100
100
AcDbEntity
  8
A
  6
FIN
 62
     7
100
AcDbVertex
100
AcDb2dVertex
 10
16.08702850341797
 20
8.287986755371094
 30
0.0
  0
VERTEX
  5
104
330
100
100
AcDbEntity
  8
A
  6
FIN
 62
     7
100
AcDbVertex
100
AcDb2dVertex
 10
16.19234085083008
 20
8.199577331542969
 30
0.0
  0
VERTEX
  5
105
330
100
100
AcDbEntity
  8
A
  6
FIN
 62
     7
100
AcDbVertex
100
AcDb2dVertex
 10
16.30652236938477
 20
8.122970581054688
 30
0.0
  0
VERTEX
  5
106
330
100
100
AcDbEntity
  8
A
  6
FIN
 62
     7
100
AcDbVertex
100
AcDb2dVertex
 10
16.42825698852539
 20
8.059051513671875
 30
0.0
  0
VERTEX
  5
107
330
100
100
AcDbEntity
  8
A
  6
FIN
 62
     7
100
AcDbVertex
100
AcDb2dVertex
 10
16.55614852905273
 20
8.008560180664063
 30
0.0
  0
VERTEX
  5
108
330
100
100
AcDbEntity
  8
A
  6
FIN
 62
     7
100
AcDbVertex
100
AcDb2dVertex
 10
16.688720703125
 20
7.972068786621094
 30
0.0
  0
VERTEX
  5
109
330
100
100
AcDbEntity
  8
A
  6
FIN
 62
     7
100
AcDbVertex
100
AcDb2dVertex
 10
16.82443618774414
 20
7.949996948242188
 30
0.0
  0
VERTEX
  5
10A
330
100
100
AcDbEntity
  8
A
  6
FIN
 62
     7
100
AcDbVertex
100
AcDb2dVertex
 10
16.96173858642578
 20
7.942619323730469
 30
0.0
  0
VERTEX
  5
10B
330
100
100
AcDbEntity
  8
A
  6
FIN
 62
     7
100
AcDbVertex
100
AcDb2dVertex
 10
16.96173858642578
 20
7.942619323730469
 30
0.0
  0
VERTEX
  5
10C
330
100
100
AcDbEntity
  8
A
  6
FIN
 62
     7
100
AcDbVertex
100
AcDb2dVertex
 10
17.07987594604492
 20
7.948081970214844
 30
0.0
  0
VERTEX
  5
10D
330
100
100
AcDbEntity
  8
A
  6
FIN
 62
     7
100
AcDbVertex
100
AcDb2dVertex
 10
17.19700241088867
 20
7.96441650390625
 30
0.0
  0
VERTEX
  5
10E
330
100
100
AcDbEntity
  8
A
  6
FIN
 62
     7
100
AcDbVertex
100
AcDb2dVertex
 10
17.3121223449707
 20
7.991493225097656
 30
0.0
  0
VERTEX
  5
10F
330
100
100
AcDbEntity
  8
A
  6
FIN
 62
     7
100
AcDbVertex
100
AcDb2dVertex
 10
17.42425918579102
 20
8.029075622558594
 30
0.0
  0
VERTEX
  5
110
330
100
100
AcDbEntity
  8
A
  6
FIN
 62
     7
100
AcDbVertex
100
AcDb2dVertex
 10
17.53244400024414
 20
8.076850891113281
 30
0.0
  0
VERTEX
  5
111
330
100
100
AcDbEntity
  8
A
  6
FIN
 62
     7
100
AcDbVertex
100
AcDb2dVertex
 10
17.63576126098633
 20
8.134391784667969
 30
0.0
  0
VERTEX
  5
112
330
100
100
AcDbEntity
  8
A
  6
FIN
 62
     7
100
AcDbVertex
100
AcDb2dVertex
 10
17.73332977294922
 20
8.201225280761719
 30
0.0
  0
VERTEX
  5
113
330
100
100
AcDbEntity
  8
A
  6
FIN
 62
     7
100
AcDbVertex
100
AcDb2dVertex
 10
17.82431411743164
 20
8.276779174804688
 30
0.0
  0
VERTEX
  5
114
330
100
100
AcDbEntity
  8
A
  6
FIN
 62
     7
100
AcDbVertex
100
AcDb2dVertex
 10
17.90793609619141
 20
8.360404968261719
 30
0.0
  0
VERTEX
  5
115
330
100
100
AcDbEntity
  8
A
  6
FIN
 62
     7
100
AcDbVertex
100
AcDb2dVertex
 10
17.98348999023438
 20
8.451393127441406
 30
0.0
  0
VERTEX
  5
116
330
100
100
AcDbEntity
  8
A
  6
FIN
 62
     7
100
AcDbVertex
100
AcDb2dVertex
 10
18.05032730102539
 20
8.548957824707031
 30
0.0
  0
VERTEX
  5
117
330
100
100
AcDbEntity
  8
A
  6
FIN
 62
     7
100
AcDbVertex
100
AcDb2dVertex
 10
18.10787200927734
 20
8.652275085449219
 30
0.0
  0
VERTEX
  5
118
330
100
100
AcDbEntity
  8
A
  6
FIN
 62
     7
100
AcDbVertex
100
AcDb2dVertex
 10
18.15564346313477
 20
8.760459899902344
 30
0.0
  0
VERTEX
  5
119
330
100
100
AcDbEntity
  8
A
  6
FIN
 62
     7
100
AcDbVertex
100
AcDb2dVertex
 10
18.1932258605957
 20
8.872589111328125
 30
0.0
  0
VERTEX
  5
11A
330
100
100
AcDbEntity
  8
A
  6
FIN
 62
     7
100
AcDbVertex
100
AcDb2dVertex
 10
18.22030258178711
 20
8.987709045410156
 30
0.0
  0
VERTEX
  5
11B
330
100
100
AcDbEntity
  8
A
  6
FIN
 62
     7
100
AcDbVertex
100
AcDb2dVertex
 10
18.23664093017578
 20
9.104843139648438
 30
0.0
  0
VERTEX
  5
11C
330
100
100
AcDbEntity
  8
A
  6
FIN
 62
     7
100
AcDbVertex
100
AcDb2dVertex
 10
18.24210357666016
 20
9.222976684570313
 30
0.0
  0
VERTEX
  5
11D
330
100
100
AcDbEntity
  8
A
  6
FIN
 62
     7
100
AcDbVertex
100
AcDb2dVertex
 10
18.24210357666016
 20
9.222976684570313
 30
0.0
  0
VERTEX
  5
11E
330
100
100
AcDbEntity
  8
A
  6
FIN
 62
     7
100
AcDbVertex
100
AcDb2dVertex
 10
18.23516464233398
 20
9.3560791015625
 30
0.0
  0
VERTEX
  5
11F
330
100
100
AcDbEntity
  8
A
  6
FIN
 62
     7
100
AcDbVertex
100
AcDb2dVertex
 10
18.21443176269531
 20
9.487739562988281
 30
0.0
  0
VERTEX
  5
120
330
100
100
AcDbEntity
  8
A
  6
FIN
 62
     7
100
AcDbVertex
100
AcDb2dVertex
 10
18.18012237548828
 20
9.616523742675781
 30
0.0
  0
VERTEX
  5
121
330
100
100
AcDbEntity
  8
A
  6
FIN
 62
     7
100
AcDbVertex
100
AcDb2dVertex
 10
18.13260650634766
 20
9.741050720214844
 30
0.0
  0
VERTEX
  5
122
330
100
100
AcDbEntity
  8
A
  6
FIN
 62
     7
100
AcDbVertex
100
AcDb2dVertex
 10
18.07240676879883
 20
9.859962463378906
 30
0.0
  0
VERTEX
  5
123
330
100
100
AcDbEntity
  8
A
  6
FIN
 62
     7
100
AcDbVertex
100
AcDb2dVertex
 10
18.00016784667969
 20
9.971969604492188
 30
0.0
  0
VERTEX
  5
124
330
100
100
AcDbEntity
  8
A
  6
FIN
 62
     7
100
AcDbVertex
100
AcDb2dVertex
 10
17.91668319702148
 20
10.07585906982422
 30
0.0
  0
VERTEX
  5
125
330
100
100
AcDbEntity
  8
A
  6
FIN
 62
     7
100
AcDbVertex
100
AcDb2dVertex
 10
17.82284927368164
 20
10.17050933837891
 30
0.0
  0
VERTEX
  5
126
330
100
100
AcDbEntity
  8
A
  6
FIN
 62
     7
100
AcDbVertex
100
AcDb2dVertex
 10
17.71968078613281
 20
10.25489044189453
 30
0.0
  0
VERTEX
  5
127
330
100
100
AcDbEntity
  8
A
  6
FIN
 62
     7
100
AcDbVertex
100
AcDb2dVertex
 10
17.60830307006836
 20
10.32809448242188
 30
0.0
  0
VERTEX
  5
128
330
100
100
AcDbEntity
  8
A
  6
FIN
 62
     7
100
AcDbVertex
100
AcDb2dVertex
 10
17.60830307006836
 20
10.32809448242188
 30
0.0
  0
SEQEND
  5
101
330
100
100
AcDbEntity
  8
A
  6
FIN
  0
POLYLINE
  5
129
330
56
100
AcDbEntity
  8
A
  6
FIN
 62
     7
100
AcDb2dPolyline
 66
     1
 10
0.0
 20
0.0
 30
0.0
  0
VERTEX
  5
12B
330
129
100
AcDbEntity
  8
A
  6
FIN
 62
     7
100
AcDbVertex
100
AcDb2dVertex
 10
2.40533447265625
 20
8.063796997070313
 30
0.0
  0
VERTEX
  5
12C
330
129
100
AcDbEntity
  8
A
  6
FIN
 62
     7
100
AcDbVertex
100
AcDb2dVertex
 10
4.669240951538086
 20
18.73877716064453
 30
0.0
  0
SEQEND
  5
12A
330
129
100
AcDbEntity
  8
A
  6
FIN
  0
POLYLINE
  5
12D
330
56
100
AcDbEntity
  8
A
  6
FIN
 62
     7
100
AcDb2dPolyline
 66
     1
 10
0.0
 20
0.0
 30
0.0
  0
VERTEX
  5
12F
330
12D
100
AcDbEntity
  8
A
  6
FIN
 62
     7
100
AcDbVertex
100
AcDb2dVertex
 10
30.87223815917969
 20
8.063796997070313
 30
0.0
  0
VERTEX
  5
130
330
12D
100
AcDbEntity
  8
A
  6
FIN
 62
     7
100
AcDbVertex
100
AcDb2dVertex
 10
32.81316375732422
 20
8.063796997070313
 30
0.0
  0
SEQEND
  5
12E
330
12D
100
AcDbEntity
  8
A
  6
FIN
  0
POLYLINE
  5
131
330
56
100
AcDbEntity
  8
A
  6
FIN
 62
     7
100
AcDb2dPolyline
 66
     1
 10
0.0
 20
0.0
 30
0.0
  0
VERTEX
  5
133
330
131
100
AcDbEntity
  8
A
  6
FIN
 62
     7
100
AcDbVertex
100
AcDb2dVertex
 10
20.35813522338867
 20
16.63616180419922
 30
0.0
  0
VERTEX
  5
134
330
131
100
AcDbEntity
  8
A
  6
FIN
 62
     7
100
AcDbVertex
100
AcDb2dVertex
 10
21.49059677124023
 20
16.63616180419922
 30
0.0
  0
SEQEND
  5
132
330
131
100
AcDbEntity
  8
A
  6
FIN
  0
POLYLINE
  5
135
330
56
100
AcDbEntity
  8
A
  6
FIN
 62
     7
100
AcDb2dPolyline
 66
     1
 10
0.0
 20
0.0
 30
0.0
  0
VERTEX
  5
137
330
135
100
AcDbEntity
  8
A
  6
FIN
 62
     7
100
AcDbVertex
100
AcDb2dVertex
 10
24.40248870849609
 20
16.63616180419922
 30
0.0
  0
VERTEX
  5
138
330
135
100
AcDbEntity
  8
A
  6
FIN
 62
     7
100
AcDbVertex
100
AcDb2dVertex
 10
24.72546768188477
 20
16.63616180419922
 30
0.0
  0
SEQEND
  5
136
330
135
100
AcDbEntity
  8
A
  6
FIN
  0
POLYLINE
  5
139
330
56
100
AcDbEntity
  8
A
  6
FIN
 62
     7
100
AcDb2dPolyline
 66
     1
 10
0.0
 20
0.0
 30
0.0
  0
VERTEX
  5
13B
330
139
100
AcDbEntity
  8
A
  6
FIN
 62
     7
100
AcDbVertex
100
AcDb2dVertex
 10
24.239990234375
 20
16.63616180419922
 30
0.0
  0
VERTEX
  5
13C
330
139
100
AcDbEntity
  8
A
  6
FIN
 62
     7
100
AcDbVertex
100
AcDb2dVertex
 10
25.37244415283203
 20
14.20995330810547
 30
0.0
  0
SEQEND
  5
13A
330
139
100
AcDbEntity
  8
A
  6
FIN
  0
POLYLINE
  5
13D
330
56
100
AcDbEntity
  8
A
  6
FIN
 62
     7
100
AcDb2dPolyline
 66
     1
 10
0.0
 20
0.0
 30
0.0
  0
VERTEX
  5
13F
330
13D
100
AcDbEntity
  8
A
  6
FIN
 62
     7
100
AcDbVertex
100
AcDb2dVertex
 10
23.4315185546875
 20
16.63616180419922
 30
0.0
  0
VERTEX
  5
140
330
13D
100
AcDbEntity
  8
A
  6
FIN
 62
     7
100
AcDbVertex
100
AcDb2dVertex
 10
24.40248870849609
 20
16.63616180419922
 30
0.0
  0
SEQEND
  5
13E
330
13D
100
AcDbEntity
  8
A
  6
FIN
  0
POLYLINE
  5
141
330
56
100
AcDbEntity
  8
A
  6
FIN
 62
     7
100
AcDb2dPolyline
 66
     1
 10
0.0
 20
0.0
 30
0.0
  0
VERTEX
  5
143
330
141
100
AcDbEntity
  8
A
  6
FIN
 62
     7
100
AcDbVertex
100
AcDb2dVertex
 10
35.56255340576172
 20
10.48989868164063
 30
0.0
  0
VERTEX
  5
144
330
141
100
AcDbEntity
  8
A
  6
FIN
 62
     7
100
AcDbVertex
100
AcDb2dVertex
 10
35.88553619384766
 20
10.48989868164063
 30
0.0
  0
SEQEND
  5
142
330
141
100
AcDbEntity
  8
A
  6
FIN
  0
POLYLINE
  5
145
330
56
100
AcDbEntity
  8
A
  6
FIN
 62
     7
100
AcDb2dPolyline
 66
     1
 10
0.0
 20
0.0
 30
0.0
  0
VERTEX
  5
147
330
145
100
AcDbEntity
  8
A
  6
FIN
 62
     7
100
AcDbVertex
100
AcDb2dVertex
 10
34.59158706665039
 20
10.48989868164063
 30
0.0
  0
VERTEX
  5
148
330
145
100
AcDbEntity
  8
A
  6
FIN
 62
     7
100
AcDbVertex
100
AcDb2dVertex
 10
35.56255340576172
 20
10.48989868164063
 30
0.0
  0
SEQEND
  5
146
330
145
100
AcDbEntity
  8
A
  6
FIN
  0
POLYLINE
  5
149
330
56
100
AcDbEntity
  8
A
  6
FIN
 62
     7
100
AcDb2dPolyline
 66
     1
 10
0.0
 20
0.0
 30
0.0
  0
VERTEX
  5
14B
330
149
100
AcDbEntity
  8
A
  6
FIN
 62
     7
100
AcDbVertex
100
AcDb2dVertex
 10
34.91558074951172
 20
12.59262084960938
 30
0.0
  0
VERTEX
  5
14C
330
149
100
AcDbEntity
  8
A
  6
FIN
 62
     7
100
AcDbVertex
100
AcDb2dVertex
 10
36.04803466796875
 20
12.59262084960938
 30
0.0
  0
SEQEND
  5
14A
330
149
100
AcDbEntity
  8
A
  6
FIN
  0
POLYLINE
  5
14D
330
56
100
AcDbEntity
  8
A
  6
FIN
 62
     7
100
AcDb2dPolyline
 66
     1
 10
0.0
 20
0.0
 30
0.0
  0
VERTEX
  5
14F
330
14D
100
AcDbEntity
  8
A
  6
FIN
 62
     7
100
AcDbVertex
100
AcDb2dVertex
 10
31.35772323608398
 20
10.48989868164063
 30
0.0
  0
VERTEX
  5
150
330
14D
100
AcDbEntity
  8
A
  6
FIN
 62
     7
100
AcDbVertex
100
AcDb2dVertex
 10
32.48917388916016
 20
10.48989868164063
 30
0.0
  0
SEQEND
  5
14E
330
14D
100
AcDbEntity
  8
A
  6
FIN
  0
POLYLINE
  5
151
330
56
100
AcDbEntity
  8
A
  6
FIN
 62
     7
100
AcDb2dPolyline
 66
     1
 10
0.0
 20
0.0
 30
0.0
  0
VERTEX
  5
153
330
151
100
AcDbEntity
  8
A
  6
FIN
 62
     7
100
AcDbVertex
100
AcDb2dVertex
 10
31.84220123291016
 20
12.59262084960938
 30
0.0
  0
VERTEX
  5
154
330
151
100
AcDbEntity
  8
A
  6
FIN
 62
     7
100
AcDbVertex
100
AcDb2dVertex
 10
33.46014022827148
 20
12.59262084960938
 30
0.0
  0
SEQEND
  5
152
330
151
100
AcDbEntity
  8
A
  6
FIN
  0
POLYLINE
  5
155
330
56
100
AcDbEntity
  8
A
  6
FIN
 62
     7
100
AcDb2dPolyline
 66
     1
 10
0.0
 20
0.0
 30
0.0
  0
VERTEX
  5
157
330
155
100
AcDbEntity
  8
A
  6
FIN
 62
     7
100
AcDbVertex
100
AcDb2dVertex
 10
31.68070983886719
 20
12.59262084960938
 30
0.0
  0
VERTEX
  5
158
330
155
100
AcDbEntity
  8
A
  6
FIN
 62
     7
100
AcDbVertex
100
AcDb2dVertex
 10
33.46014022827148
 20
12.59262084960938
 30
0.0
  0
SEQEND
  5
156
330
155
100
AcDbEntity
  8
A
  6
FIN
  0
POLYLINE
  5
159
330
56
100
AcDbEntity
  8
A
  6
FIN
 62
     7
100
AcDb2dPolyline
 66
     1
 10
0.0
 20
0.0
 30
0.0
  0
VERTEX
  5
15B
330
159
100
AcDbEntity
  8
A
  6
FIN
 62
     7
100
AcDbVertex
100
AcDb2dVertex
 10
32.48917388916016
 20
16.79785919189453
 30
0.0
  0
VERTEX
  5
15C
330
159
100
AcDbEntity
  8
A
  6
FIN
 62
     7
100
AcDbVertex
100
AcDb2dVertex
 10
32.16619110107422
 20
14.20995330810547
 30
0.0
  0
SEQEND
  5
15A
330
159
100
AcDbEntity
  8
A
  6
FIN
  0
POLYLINE
  5
15D
330
56
100
AcDbEntity
  8
A
  6
FIN
 62
     7
100
AcDb2dPolyline
 66
     1
 10
0.0
 20
0.0
 30
0.0
  0
VERTEX
  5
15F
330
15D
100
AcDbEntity
  8
A
  6
FIN
 62
     7
100
AcDbVertex
100
AcDb2dVertex
 10
26.34341049194336
 20
16.47447204589844
 30
0.0
  0
VERTEX
  5
160
330
15D
100
AcDbEntity
  8
A
  6
FIN
 62
     7
100
AcDbVertex
100
AcDb2dVertex
 10
26.35431671142578
 20
16.25257110595703
 30
0.0
  0
VERTEX
  5
161
330
15D
100
AcDbEntity
  8
A
  6
FIN
 62
     7
100
AcDbVertex
100
AcDb2dVertex
 10
26.38692474365234
 20
16.03281402587891
 30
0.0
  0
VERTEX
  5
162
330
15D
100
AcDbEntity
  8
A
  6
FIN
 62
     7
100
AcDbVertex
100
AcDb2dVertex
 10
26.4409065246582
 20
15.81730651855469
 30
0.0
  0
VERTEX
  5
163
330
15D
100
AcDbEntity
  8
A
  6
FIN
 62
     7
100
AcDbVertex
100
AcDb2dVertex
 10
26.51575469970703
 20
15.60812377929688
 30
0.0
  0
VERTEX
  5
164
330
15D
100
AcDbEntity
  8
A
  6
FIN
 62
     7
100
AcDbVertex
100
AcDb2dVertex
 10
26.61075210571289
 20
15.40728759765625
 30
0.0
  0
VERTEX
  5
165
330
15D
100
AcDbEntity
  8
A
  6
FIN
 62
     7
100
AcDbVertex
100
AcDb2dVertex
 10
26.7249641418457
 20
15.21673583984375
 30
0.0
  0
VERTEX
  5
166
330
15D
100
AcDbEntity
  8
A
  6
FIN
 62
     7
100
AcDbVertex
100
AcDb2dVertex
 10
26.85731506347656
 20
15.03828430175781
 30
0.0
  0
VERTEX
  5
167
330
15D
100
AcDbEntity
  8
A
  6
FIN
 62
     7
100
AcDbVertex
100
AcDb2dVertex
 10
27.00651168823242
 20
14.87367248535156
 30
0.0
  0
VERTEX
  5
168
330
15D
100
AcDbEntity
  8
A
  6
FIN
 62
     7
100
AcDbVertex
100
AcDb2dVertex
 10
27.1711311340332
 20
14.7244873046875
 30
0.0
  0
VERTEX
  5
169
330
15D
100
AcDbEntity
  8
A
  6
FIN
 62
     7
100
AcDbVertex
100
AcDb2dVertex
 10
27.34957504272461
 20
14.59214019775391
 30
0.0
  0
VERTEX
  5
16A
330
15D
100
AcDbEntity
  8
A
  6
FIN
 62
     7
100
AcDbVertex
100
AcDb2dVertex
 10
27.54013442993164
 20
14.47792816162109
 30
0.0
  0
VERTEX
  5
16B
330
15D
100
AcDbEntity
  8
A
  6
FIN
 62
     7
100
AcDbVertex
100
AcDb2dVertex
 10
27.74097442626953
 20
14.3829345703125
 30
0.0
  0
VERTEX
  5
16C
330
15D
100
AcDbEntity
  8
A
  6
FIN
 62
     7
100
AcDbVertex
100
AcDb2dVertex
 10
27.95014953613281
 20
14.30809020996094
 30
0.0
  0
VERTEX
  5
16D
330
15D
100
AcDbEntity
  8
A
  6
FIN
 62
     7
100
AcDbVertex
100
AcDb2dVertex
 10
28.16565704345703
 20
14.25411224365234
 30
0.0
  0
VERTEX
  5
16E
330
15D
100
AcDbEntity
  8
A
  6
FIN
 62
     7
100
AcDbVertex
100
AcDb2dVertex
 10
28.38541793823242
 20
14.22151947021484
 30
0.0
  0
VERTEX
  5
16F
330
15D
100
AcDbEntity
  8
A
  6
FIN
 62
     7
100
AcDbVertex
100
AcDb2dVertex
 10
28.60731506347656
 20
14.21060943603516
 30
0.0
  0
VERTEX
  5
170
330
15D
100
AcDbEntity
  8
A
  6
FIN
 62
     7
100
AcDbVertex
100
AcDb2dVertex
 10
28.60731506347656
 20
14.21060943603516
 30
0.0
  0
VERTEX
  5
171
330
15D
100
AcDbEntity
  8
A
  6
FIN
 62
     7
100
AcDbVertex
100
AcDb2dVertex
 10
28.8292121887207
 20
14.22151947021484
 30
0.0
  0
VERTEX
  5
172
330
15D
100
AcDbEntity
  8
A
  6
FIN
 62
     7
100
AcDbVertex
100
AcDb2dVertex
 10
29.04898452758789
 20
14.25411224365234
 30
0.0
  0
VERTEX
  5
173
330
15D
100
AcDbEntity
  8
A
  6
FIN
 62
     7
100
AcDbVertex
100
AcDb2dVertex
 10
29.26448822021484
 20
14.30809020996094
 30
0.0
  0
VERTEX
  5
174
330
15D
100
AcDbEntity
  8
A
  6
FIN
 62
     7
100
AcDbVertex
100
AcDb2dVertex
 10
29.47367095947266
 20
14.3829345703125
 30
0.0
  0
VERTEX
  5
175
330
15D
100
AcDbEntity
  8
A
  6
FIN
 62
     7
100
AcDbVertex
100
AcDb2dVertex
 10
29.67450332641602
 20
14.47792816162109
 30
0.0
  0
VERTEX
  5
176
330
15D
100
AcDbEntity
  8
A
  6
FIN
 62
     7
100
AcDbVertex
100
AcDb2dVertex
 10
29.86505889892578
 20
14.59214019775391
 30
0.0
  0
VERTEX
  5
177
330
15D
100
AcDbEntity
  8
A
  6
FIN
 62
     7
100
AcDbVertex
100
AcDb2dVertex
 10
30.04351043701172
 20
14.72447967529297
 30
0.0
  0
VERTEX
  5
178
330
15D
100
AcDbEntity
  8
A
  6
FIN
 62
     7
100
AcDbVertex
100
AcDb2dVertex
 10
30.20812225341797
 20
14.87367248535156
 30
0.0
  0
VERTEX
  5
179
330
15D
100
AcDbEntity
  8
A
  6
FIN
 62
     7
100
AcDbVertex
100
AcDb2dVertex
 10
30.35733032226563
 20
15.03828430175781
 30
0.0
  0
VERTEX
  5
17A
330
15D
100
AcDbEntity
  8
A
  6
FIN
 62
     7
100
AcDbVertex
100
AcDb2dVertex
 10
30.48966979980469
 20
15.21672821044922
 30
0.0
  0
VERTEX
  5
17B
330
15D
100
AcDbEntity
  8
A
  6
FIN
 62
     7
100
AcDbVertex
100
AcDb2dVertex
 10
30.6038932800293
 20
15.40728759765625
 30
0.0
  0
VERTEX
  5
17C
330
15D
100
AcDbEntity
  8
A
  6
FIN
 62
     7
100
AcDbVertex
100
AcDb2dVertex
 10
30.69887924194336
 20
15.60812377929688
 30
0.0
  0
VERTEX
  5
17D
330
15D
100
AcDbEntity
  8
A
  6
FIN
 62
     7
100
AcDbVertex
100
AcDb2dVertex
 10
30.77373123168945
 20
15.81729888916016
 30
0.0
  0
VERTEX
  5
17E
330
15D
100
AcDbEntity
  8
A
  6
FIN
 62
     7
100
AcDbVertex
100
AcDb2dVertex
 10
30.82772064208984
 20
16.03280639648438
 30
0.0
  0
VERTEX
  5
17F
330
15D
100
AcDbEntity
  8
A
  6
FIN
 62
     7
100
AcDbVertex
100
AcDb2dVertex
 10
30.86032104492188
 20
16.2525634765625
 30
0.0
  0
VERTEX
  5
180
330
15D
100
AcDbEntity
  8
A
  6
FIN
 62
     7
100
AcDbVertex
100
AcDb2dVertex
 10
30.8712272644043
 20
16.47446441650391
 30
0.0
  0
VERTEX
  5
181
330
15D
100
AcDbEntity
  8
A
  6
FIN
 62
     7
100
AcDbVertex
100
AcDb2dVertex
 10
30.8712272644043
 20
16.47446441650391
 30
0.0
  0
SEQEND
  5
15E
330
15D
100
AcDbEntity
  8
A
  6
FIN
  0
POLYLINE
  5
182
330
56
100
AcDbEntity
  8
A
  6
FIN
 62
     7
100
AcDb2dPolyline
 66
     1
 10
0.0
 20
0.0
 30
0.0
  0
VERTEX
  5
184
330
182
100
AcDbEntity
  8
A
  6
FIN
 62
     7
100
AcDbVertex
100
AcDb2dVertex
 10
20.68213272094727
 20
18.73877716064453
 30
0.0
  0
VERTEX
  5
185
330
182
100
AcDbEntity
  8
A
  6
FIN
 62
     7
100
AcDbVertex
100
AcDb2dVertex
 10
22.46156311035156
 20
18.73877716064453
 30
0.0
  0
SEQEND
  5
183
330
182
100
AcDbEntity
  8
A
  6
FIN
  0
POLYLINE
  5
186
330
56
100
AcDbEntity
  8
A
  6
FIN
 62
     7
100
AcDb2dPolyline
 66
     1
 10
0.0
 20
0.0
 30
0.0
  0
VERTEX
  5
188
330
186
100
AcDbEntity
  8
A
  6
FIN
 62
     7
100
AcDbVertex
100
AcDb2dVertex
 10
23.75551605224609
 20
18.73877716064453
 30
0.0
  0
VERTEX
  5
189
330
186
100
AcDbEntity
  8
A
  6
FIN
 62
     7
100
AcDbVertex
100
AcDb2dVertex
 10
24.88796615600586
 20
18.73877716064453
 30
0.0
  0
SEQEND
  5
187
330
186
100
AcDbEntity
  8
A
  6
FIN
  0
POLYLINE
  5
18A
330
56
100
AcDbEntity
  8
A
  6
FIN
 62
     7
100
AcDb2dPolyline
 66
     1
 10
0.0
 20
0.0
 30
0.0
  0
VERTEX
  5
18C
330
18A
100
AcDbEntity
  8
A
  6
FIN
 62
     7
100
AcDbVertex
100
AcDb2dVertex
 10
23.75551605224609
 20
18.73877716064453
 30
0.0
  0
VERTEX
  5
18D
330
18A
100
AcDbEntity
  8
A
  6
FIN
 62
     7
100
AcDbVertex
100
AcDb2dVertex
 10
22.94603729248047
 20
14.20995330810547
 30
0.0
  0
SEQEND
  5
18B
330
18A
100
AcDbEntity
  8
A
  6
FIN
  0
POLYLINE
  5
18E
330
56
100
AcDbEntity
  8
A
  6
FIN
 62
     7
100
AcDb2dPolyline
 66
     1
 10
0.0
 20
0.0
 30
0.0
  0
VERTEX
  5
190
330
18E
100
AcDbEntity
  8
A
  6
FIN
 62
     7
100
AcDbVertex
100
AcDb2dVertex
 10
24.72546768188477
 20
16.63616180419922
 30
0.0
  0
VERTEX
  5
191
330
18E
100
AcDbEntity
  8
A
  6
FIN
 62
     7
100
AcDbVertex
100
AcDb2dVertex
 10
24.8299560546875
 20
16.65084075927734
 30
0.0
  0
VERTEX
  5
192
330
18E
100
AcDbEntity
  8
A
  6
FIN
 62
     7
100
AcDbVertex
100
AcDb2dVertex
 10
24.93247985839844
 20
16.67573547363281
 30
0.0
  0
VERTEX
  5
193
330
18E
100
AcDbEntity
  8
A
  6
FIN
 62
     7
100
AcDbVertex
100
AcDb2dVertex
 10
25.03205108642578
 20
16.71060943603516
 30
0.0
  0
VERTEX
  5
194
330
18E
100
AcDbEntity
  8
A
  6
FIN
 62
     7
100
AcDbVertex
100
AcDb2dVertex
 10
25.12770462036133
 20
16.75513458251953
 30
0.0
  0
VERTEX
  5
195
330
18E
100
AcDbEntity
  8
A
  6
FIN
 62
     7
100
AcDbVertex
100
AcDb2dVertex
 10
25.218505859375
 20
16.80887603759766
 30
0.0
  0
VERTEX
  5
196
330
18E
100
AcDbEntity
  8
A
  6
FIN
 62
     7
100
AcDbVertex
100
AcDb2dVertex
 10
25.30356597900391
 20
16.87129211425781
 30
0.0
  0
VERTEX
  5
197
330
18E
100
AcDbEntity
  8
A
  6
FIN
 62
     7
100
AcDbVertex
100
AcDb2dVertex
 10
25.38206100463867
 20
16.94179534912109
 30
0.0
  0
VERTEX
  5
198
330
18E
100
AcDbEntity
  8
A
  6
FIN
 62
     7
100
AcDbVertex
100
AcDb2dVertex
 10
25.45322799682617
 20
17.01968383789063
 30
0.0
  0
VERTEX
  5
199
330
18E
100
AcDbEntity
  8
A
  6
FIN
 62
     7
100
AcDbVertex
100
AcDb2dVertex
 10
25.51637268066406
 20
17.10420989990234
 30
0.0
  0
VERTEX
  5
19A
330
18E
100
AcDbEntity
  8
A
  6
FIN
 62
     7
100
AcDbVertex
100
AcDb2dVertex
 10
25.57088088989258
 20
17.19454956054688
 30
0.0
  0
VERTEX
  5
19B
330
18E
100
AcDbEntity
  8
A
  6
FIN
 62
     7
100
AcDbVertex
100
AcDb2dVertex
 10
25.61622619628906
 20
17.28982543945313
 30
0.0
  0
VERTEX
  5
19C
330
18E
100
AcDbEntity
  8
A
  6
FIN
 62
     7
100
AcDbVertex
100
AcDb2dVertex
 10
25.65195083618164
 20
17.38909149169922
 30
0.0
  0
VERTEX
  5
19D
330
18E
100
AcDbEntity
  8
A
  6
FIN
 62
     7
100
AcDbVertex
100
AcDb2dVertex
 10
25.6777229309082
 20
17.49140930175781
 30
0.0
  0
VERTEX
  5
19E
330
18E
100
AcDbEntity
  8
A
  6
FIN
 62
     7
100
AcDbVertex
100
AcDb2dVertex
 10
25.69328689575195
 20
17.59575653076172
 30
0.0
  0
VERTEX
  5
19F
330
18E
100
AcDbEntity
  8
A
  6
FIN
 62
     7
100
AcDbVertex
100
AcDb2dVertex
 10
25.69849014282227
 20
17.70114135742188
 30
0.0
  0
VERTEX
  5
1A0
330
18E
100
AcDbEntity
  8
A
  6
FIN
 62
     7
100
AcDbVertex
100
AcDb2dVertex
 10
25.69849014282227
 20
17.70114135742188
 30
0.0
  0
VERTEX
  5
1A1
330
18E
100
AcDbEntity
  8
A
  6
FIN
 62
     7
100
AcDbVertex
100
AcDb2dVertex
 10
25.69369506835938
 20
17.80227661132813
 30
0.0
  0
VERTEX
  5
1A2
330
18E
100
AcDbEntity
  8
A
  6
FIN
 62
     7
100
AcDbVertex
100
AcDb2dVertex
 10
25.67935943603516
 20
17.90251159667969
 30
0.0
  0
VERTEX
  5
1A3
330
18E
100
AcDbEntity
  8
A
  6
FIN
 62
     7
100
AcDbVertex
100
AcDb2dVertex
 10
25.65560531616211
 20
18.00093078613281
 30
0.0
  0
VERTEX
  5
1A4
330
18E
100
AcDbEntity
  8
A
  6
FIN
 62
     7
100
AcDbVertex
100
AcDb2dVertex
 10
25.62265396118164
 20
18.09667205810547
 30
0.0
  0
VERTEX
  5
1A5
330
18E
100
AcDbEntity
  8
A
  6
FIN
 62
     7
100
AcDbVertex
100
AcDb2dVertex
 10
25.58078384399414
 20
18.18886566162109
 30
0.0
  0
VERTEX
  5
1A6
330
18E
100
AcDbEntity
  8
A
  6
FIN
 62
     7
100
AcDbVertex
100
AcDb2dVertex
 10
25.5303955078125
 20
18.27667999267578
 30
0.0
  0
VERTEX
  5
1A7
330
18E
100
AcDbEntity
  8
A
  6
FIN
 62
     7
100
AcDbVertex
100
AcDb2dVertex
 10
25.47191619873047
 20
18.35933685302734
 30
0.0
  0
VERTEX
  5
1A8
330
18E
100
AcDbEntity
  8
A
  6
FIN
 62
     7
100
AcDbVertex
100
AcDb2dVertex
 10
25.4058837890625
 20
18.43609619140625
 30
0.0
  0
VERTEX
  5
1A9
330
18E
100
AcDbEntity
  8
A
  6
FIN
 62
     7
100
AcDbVertex
100
AcDb2dVertex
 10
25.33287811279297
 20
18.50627136230469
 30
0.0
  0
VERTEX
  5
1AA
330
18E
100
AcDbEntity
  8
A
  6
FIN
 62
     7
100
AcDbVertex
100
AcDb2dVertex
 10
25.25357818603516
 20
18.5692138671875
 30
0.0
  0
VERTEX
  5
1AB
330
18E
100
AcDbEntity
  8
A
  6
FIN
 62
     7
100
AcDbVertex
100
AcDb2dVertex
 10
25.16866683959961
 20
18.62438201904297
 30
0.0
  0
VERTEX
  5
1AC
330
18E
100
AcDbEntity
  8
A
  6
FIN
 62
     7
100
AcDbVertex
100
AcDb2dVertex
 10
25.07893371582031
 20
18.67127227783203
 30
0.0
  0
VERTEX
  5
1AD
330
18E
100
AcDbEntity
  8
A
  6
FIN
 62
     7
100
AcDbVertex
100
AcDb2dVertex
 10
24.98515701293945
 20
18.70945739746094
 30
0.0
  0
VERTEX
  5
1AE
330
18E
100
AcDbEntity
  8
A
  6
FIN
 62
     7
100
AcDbVertex
100
AcDb2dVertex
 10
24.88819122314453
 20
18.73860931396484
 30
0.0
  0
VERTEX
  5
1AF
330
18E
100
AcDbEntity
  8
A
  6
FIN
 62
     7
100
AcDbVertex
100
AcDb2dVertex
 10
24.88819122314453
 20
18.73860931396484
 30
0.0
  0
SEQEND
  5
18F
330
18E
100
AcDbEntity
  8
A
  6
FIN
  0
POLYLINE
  5
1B0
330
56
100
AcDbEntity
  8
A
  6
FIN
 62
     7
100
AcDb2dPolyline
 66
     1
 10
0.0
 20
0.0
 30
0.0
  0
VERTEX
  5
1B2
330
1B0
100
AcDbEntity
  8
A
  6
FIN
 62
     7
100
AcDbVertex
100
AcDb2dVertex
 10
32.48917388916016
 20
16.79785919189453
 30
0.0
  0
VERTEX
  5
1B3
330
1B0
100
AcDbEntity
  8
A
  6
FIN
 62
     7
100
AcDbVertex
100
AcDb2dVertex
 10
34.10711288452148
 20
18.73877716064453
 30
0.0
  0
SEQEND
  5
1B1
330
1B0
100
AcDbEntity
  8
A
  6
FIN
  0
POLYLINE
  5
1B4
330
56
100
AcDbEntity
  8
A
  6
FIN
 62
     7
100
AcDb2dPolyline
 66
     1
 10
0.0
 20
0.0
 30
0.0
  0
VERTEX
  5
1B6
330
1B4
100
AcDbEntity
  8
A
  6
FIN
 62
     7
100
AcDbVertex
100
AcDb2dVertex
 10
31.19521713256836
 20
18.73877716064453
 30
0.0
  0
VERTEX
  5
1B7
330
1B4
100
AcDbEntity
  8
A
  6
FIN
 62
     7
100
AcDbVertex
100
AcDb2dVertex
 10
32.48917388916016
 20
16.79785919189453
 30
0.0
  0
SEQEND
  5
1B5
330
1B4
100
AcDbEntity
  8
A
  6
FIN
  0
POLYLINE
  5
1B8
330
56
100
AcDbEntity
  8
A
  6
FIN
 62
     7
100
AcDb2dPolyline
 66
     1
 10
0.0
 20
0.0
 30
0.0
  0
VERTEX
  5
1BA
330
1B8
100
AcDbEntity
  8
A
  6
FIN
 62
     7
100
AcDbVertex
100
AcDb2dVertex
 10
30.87223815917969
 20
16.47447204589844
 30
0.0
  0
VERTEX
  5
1BB
330
1B8
100
AcDbEntity
  8
A
  6
FIN
 62
     7
100
AcDbVertex
100
AcDb2dVertex
 10
30.861328125
 20
16.69647216796875
 30
0.0
  0
VERTEX
  5
1BC
330
1B8
100
AcDbEntity
  8
A
  6
FIN
 62
     7
100
AcDbVertex
100
AcDb2dVertex
 10
30.82871627807617
 20
16.91632843017578
 30
0.0
  0
VERTEX
  5
1BD
330
1B8
100
AcDbEntity
  8
A
  6
FIN
 62
     7
100
AcDbVertex
100
AcDb2dVertex
 10
30.77470779418945
 20
17.13194274902344
 30
0.0
  0
VERTEX
  5
1BE
330
1B8
100
AcDbEntity
  8
A
  6
FIN
 62
     7
100
AcDbVertex
100
AcDb2dVertex
 10
30.69983291625977
 20
17.34121704101563
 30
0.0
  0
VERTEX
  5
1BF
330
1B8
100
AcDbEntity
  8
A
  6
FIN
 62
     7
100
AcDbVertex
100
AcDb2dVertex
 10
30.60479736328125
 20
17.54213714599609
 30
0.0
  0
VERTEX
  5
1C0
330
1B8
100
AcDbEntity
  8
A
  6
FIN
 62
     7
100
AcDbVertex
100
AcDb2dVertex
 10
30.49053192138672
 20
17.7327880859375
 30
0.0
  0
VERTEX
  5
1C1
330
1B8
100
AcDbEntity
  8
A
  6
FIN
 62
     7
100
AcDbVertex
100
AcDb2dVertex
 10
30.35812377929688
 20
17.91131591796875
 30
0.0
  0
VERTEX
  5
1C2
330
1B8
100
AcDbEntity
  8
A
  6
FIN
 62
     7
100
AcDbVertex
100
AcDb2dVertex
 10
30.20885848999023
 20
18.07599639892578
 30
0.0
  0
VERTEX
  5
1C3
330
1B8
100
AcDbEntity
  8
A
  6
FIN
 62
     7
100
AcDbVertex
100
AcDb2dVertex
 10
30.04417037963867
 20
18.22526550292969
 30
0.0
  0
VERTEX
  5
1C4
330
1B8
100
AcDbEntity
  8
A
  6
FIN
 62
     7
100
AcDbVertex
100
AcDb2dVertex
 10
29.86564254760742
 20
18.35767364501953
 30
0.0
  0
VERTEX
  5
1C5
330
1B8
100
AcDbEntity
  8
A
  6
FIN
 62
     7
100
AcDbVertex
100
AcDb2dVertex
 10
29.67499160766602
 20
18.47193908691406
 30
0.0
  0
VERTEX
  5
1C6
330
1B8
100
AcDbEntity
  8
A
  6
FIN
 62
     7
100
AcDbVertex
100
AcDb2dVertex
 10
29.47406768798828
 20
18.56697082519531
 30
0.0
  0
VERTEX
  5
1C7
330
1B8
100
AcDbEntity
  8
A
  6
FIN
 62
     7
100
AcDbVertex
100
AcDb2dVertex
 10
29.26479339599609
 20
18.641845703125
 30
0.0
  0
VERTEX
  5
1C8
330
1B8
100
AcDbEntity
  8
A
  6
FIN
 62
     7
100
AcDbVertex
100
AcDb2dVertex
 10
29.0491828918457
 20
18.69586181640625
 30
0.0
  0
VERTEX
  5
1C9
330
1B8
100
AcDbEntity
  8
A
  6
FIN
 62
     7
100
AcDbVertex
100
AcDb2dVertex
 10
28.82932281494141
 20
18.72847747802734
 30
0.0
  0
VERTEX
  5
1CA
330
1B8
100
AcDbEntity
  8
A
  6
FIN
 62
     7
100
AcDbVertex
100
AcDb2dVertex
 10
28.60731506347656
 20
18.7393798828125
 30
0.0
  0
VERTEX
  5
1CB
330
1B8
100
AcDbEntity
  8
A
  6
FIN
 62
     7
100
AcDbVertex
100
AcDb2dVertex
 10
28.60731506347656
 20
18.7393798828125
 30
0.0
  0
VERTEX
  5
1CC
330
1B8
100
AcDbEntity
  8
A
  6
FIN
 62
     7
100
AcDbVertex
100
AcDb2dVertex
 10
28.38531875610352
 20
18.72847747802734
 30
0.0
  0
VERTEX
  5
1CD
330
1B8
100
AcDbEntity
  8
A
  6
FIN
 62
     7
100
AcDbVertex
100
AcDb2dVertex
 10
28.16545486450195
 20
18.69586181640625
 30
0.0
  0
VERTEX
  5
1CE
330
1B8
100
AcDbEntity
  8
A
  6
FIN
 62
     7
100
AcDbVertex
100
AcDb2dVertex
 10
27.94984817504883
 20
18.641845703125
 30
0.0
  0
VERTEX
  5
1CF
330
1B8
100
AcDbEntity
  8
A
  6
FIN
 62
     7
100
AcDbVertex
100
AcDb2dVertex
 10
27.74057769775391
 20
18.56697082519531
 30
0.0
  0
VERTEX
  5
1D0
330
1B8
100
AcDbEntity
  8
A
  6
FIN
 62
     7
100
AcDbVertex
100
AcDb2dVertex
 10
27.53964614868164
 20
18.47194671630859
 30
0.0
  0
VERTEX
  5
1D1
330
1B8
100
AcDbEntity
  8
A
  6
FIN
 62
     7
100
AcDbVertex
100
AcDb2dVertex
 10
27.34900665283203
 20
18.35767364501953
 30
0.0
  0
VERTEX
  5
1D2
330
1B8
100
AcDbEntity
  8
A
  6
FIN
 62
     7
100
AcDbVertex
100
AcDb2dVertex
 10
27.17047500610352
 20
18.22526550292969
 30
0.0
  0
VERTEX
  5
1D3
330
1B8
100
AcDbEntity
  8
A
  6
FIN
 62
     7
100
AcDbVertex
100
AcDb2dVertex
 10
27.00579071044922
 20
18.07600402832031
 30
0.0
  0
VERTEX
  5
1D4
330
1B8
100
AcDbEntity
  8
A
  6
FIN
 62
     7
100
AcDbVertex
100
AcDb2dVertex
 10
26.85652542114258
 20
17.91131591796875
 30
0.0
  0
VERTEX
  5
1D5
330
1B8
100
AcDbEntity
  8
A
  6
FIN
 62
     7
100
AcDbVertex
100
AcDb2dVertex
 10
26.72411346435547
 20
17.7327880859375
 30
0.0
  0
VERTEX
  5
1D6
330
1B8
100
AcDbEntity
  8
A
  6
FIN
 62
     7
100
AcDbVertex
100
AcDb2dVertex
 10
26.60984420776367
 20
17.54214477539063
 30
0.0
  0
VERTEX
  5
1D7
330
1B8
100
AcDbEntity
  8
A
  6
FIN
 62
     7
100
AcDbVertex
100
AcDb2dVertex
 10
26.51481246948242
 20
17.34121704101563
 30
0.0
  0
VERTEX
  5
1D8
330
1B8
100
AcDbEntity
  8
A
  6
FIN
 62
     7
100
AcDbVertex
100
AcDb2dVertex
 10
26.4399299621582
 20
17.13194274902344
 30
0.0
  0
VERTEX
  5
1D9
330
1B8
100
AcDbEntity
  8
A
  6
FIN
 62
     7
100
AcDbVertex
100
AcDb2dVertex
 10
26.38592147827148
 20
16.91633605957031
 30
0.0
  0
VERTEX
  5
1DA
330
1B8
100
AcDbEntity
  8
A
  6
FIN
 62
     7
100
AcDbVertex
100
AcDb2dVertex
 10
26.35330963134766
 20
16.69647216796875
 30
0.0
  0
VERTEX
  5
1DB
330
1B8
100
AcDbEntity
  8
A
  6
FIN
 62
     7
100
AcDbVertex
100
AcDb2dVertex
 10
26.34240341186523
 20
16.47447967529297
 30
0.0
  0
VERTEX
  5
1DC
330
1B8
100
AcDbEntity
  8
A
  6
FIN
 62
     7
100
AcDbVertex
100
AcDb2dVertex
 10
26.34240341186523
 20
16.47447967529297
 30
0.0
  0
SEQEND
  5
1B9
330
1B8
100
AcDbEntity
  8
A
  6
FIN
  0
POLYLINE
  5
1DD
330
56
100
AcDbEntity
  8
A
  6
FIN
 62
     7
100
AcDb2dPolyline
 66
     1
 10
0.0
 20
0.0
 30
0.0
  0
VERTEX
  5
1DF
330
1DD
100
AcDbEntity
  8
A
  6
FIN
 62
     7
100
AcDbVertex
100
AcDb2dVertex
 10
25.37244415283203
 20
12.59262084960938
 30
0.0
  0
VERTEX
  5
1E0
330
1DD
100
AcDbEntity
  8
A
  6
FIN
 62
     7
100
AcDbVertex
100
AcDb2dVertex
 10
24.72546768188477
 20
8.063796997070313
 30
0.0
  0
SEQEND
  5
1DE
330
1DD
100
AcDbEntity
  8
A
  6
FIN
  0
POLYLINE
  5
1E1
330
56
100
AcDbEntity
  8
A
  6
FIN
 62
     7
100
AcDb2dPolyline
 66
     1
 10
0.0
 20
0.0
 30
0.0
  0
VERTEX
  5
1E3
330
1E1
100
AcDbEntity
  8
A
  6
FIN
 62
     7
100
AcDbVertex
100
AcDb2dVertex
 10
27.31336975097656
 20
8.063796997070313
 30
0.0
  0
VERTEX
  5
1E4
330
1E1
100
AcDbEntity
  8
A
  6
FIN
 62
     7
100
AcDbVertex
100
AcDb2dVertex
 10
25.37244415283203
 20
12.59262084960938
 30
0.0
  0
SEQEND
  5
1E2
330
1E1
100
AcDbEntity
  8
A
  6
FIN
  0
POLYLINE
  5
1E5
330
56
100
AcDbEntity
  8
A
  6
FIN
 62
     7
100
AcDb2dPolyline
 66
     1
 10
0.0
 20
0.0
 30
0.0
  0
VERTEX
  5
1E7
330
1E5
100
AcDbEntity
  8
A
  6
FIN
 62
     7
100
AcDbVertex
100
AcDb2dVertex
 10
29.25429534912109
 20
12.59262084960938
 30
0.0
  0
VERTEX
  5
1E8
330
1E5
100
AcDbEntity
  8
A
  6
FIN
 62
     7
100
AcDbVertex
100
AcDb2dVertex
 10
29.57828521728516
 20
8.063796997070313
 30
0.0
  0
SEQEND
  5
1E6
330
1E5
100
AcDbEntity
  8
A
  6
FIN
  0
POLYLINE
  5
1E9
330
56
100
AcDbEntity
  8
A
  6
FIN
 62
     7
100
AcDb2dPolyline
 66
     1
 10
0.0
 20
0.0
 30
0.0
  0
VERTEX
  5
1EB
330
1E9
100
AcDbEntity
  8
A
  6
FIN
 62
     7
100
AcDbVertex
100
AcDb2dVertex
 10
31.68070983886719
 20
12.59262084960938
 30
0.0
  0
VERTEX
  5
1EC
330
1E9
100
AcDbEntity
  8
A
  6
FIN
 62
     7
100
AcDbVertex
100
AcDb2dVertex
 10
30.87223815917969
 20
8.063796997070313
 30
0.0
  0
SEQEND
  5
1EA
330
1E9
100
AcDbEntity
  8
A
  6
FIN
  0
POLYLINE
  5
1ED
330
56
100
AcDbEntity
  8
A
  6
FIN
 62
     7
100
AcDb2dPolyline
 66
     1
 10
0.0
 20
0.0
 30
0.0
  0
VERTEX
  5
1EF
330
1ED
100
AcDbEntity
  8
A
  6
FIN
 62
     7
100
AcDbVertex
100
AcDb2dVertex
 10
35.40106201171875
 20
10.48989868164063
 30
0.0
  0
VERTEX
  5
1F0
330
1ED
100
AcDbEntity
  8
A
  6
FIN
 62
     7
100
AcDbVertex
100
AcDb2dVertex
 10
36.53352737426758
 20
8.063796997070313
 30
0.0
  0
SEQEND
  5
1EE
330
1ED
100
AcDbEntity
  8
A
  6
FIN
  0
POLYLINE
  5
1F1
330
56
100
AcDbEntity
  8
A
  6
FIN
 62
     7
100
AcDb2dPolyline
 66
     1
 10
0.0
 20
0.0
 30
0.0
  0
VERTEX
  5
1F3
330
1F1
100
AcDbEntity
  8
A
  6
FIN
 62
     7
100
AcDbVertex
100
AcDb2dVertex
 10
34.91558074951172
 20
12.59262084960938
 30
0.0
  0
VERTEX
  5
1F4
330
1F1
100
AcDbEntity
  8
A
  6
FIN
 62
     7
100
AcDbVertex
100
AcDb2dVertex
 10
34.10711288452148
 20
8.063796997070313
 30
0.0
  0
SEQEND
  5
1F2
330
1F1
100
AcDbEntity
  8
A
  6
FIN
  0
POLYLINE
  5
1F5
330
56
100
AcDbEntity
  8
A
  6
FIN
 62
     7
100
AcDb2dPolyline
 66
     1
 10
0.0
 20
0.0
 30
0.0
  0
VERTEX
  5
1F7
330
1F5
100
AcDbEntity
  8
A
  6
FIN
 62
     7
100
AcDbVertex
100
AcDb2dVertex
 10
27.31336975097656
 20
8.063796997070313
 30
0.0
  0
VERTEX
  5
1F8
330
1F5
100
AcDbEntity
  8
A
  6
FIN
 62
     7
100
AcDbVertex
100
AcDb2dVertex
 10
29.25429534912109
 20
12.59262084960938
 30
0.0
  0
SEQEND
  5
1F6
330
1F5
100
AcDbEntity
  8
A
  6
FIN
  0
POLYLINE
  5
1F9
330
56
100
AcDbEntity
  8
A
  6
FIN
 62
     7
100
AcDb2dPolyline
 66
     1
 10
0.0
 20
0.0
 30
0.0
  0
VERTEX
  5
1FB
330
1F9
100
AcDbEntity
  8
A
  6
FIN
 62
     7
100
AcDbVertex
100
AcDb2dVertex
 10
35.88553619384766
 20
10.48989868164063
 30
0.0
  0
VERTEX
  5
1FC
330
1F9
100
AcDbEntity
  8
A
  6
FIN
 62
     7
100
AcDbVertex
100
AcDb2dVertex
 10
35.99002075195313
 20
10.50457000732422
 30
0.0
  0
VERTEX
  5
1FD
330
1F9
100
AcDbEntity
  8
A
  6
FIN
 62
     7
100
AcDbVertex
100
AcDb2dVertex
 10
36.09255599975586
 20
10.52946472167969
 30
0.0
  0
VERTEX
  5
1FE
330
1F9
100
AcDbEntity
  8
A
  6
FIN
 62
     7
100
AcDbVertex
100
AcDb2dVertex
 10
36.1921272277832
 20
10.56434631347656
 30
0.0
  0
VERTEX
  5
1FF
330
1F9
100
AcDbEntity
  8
A
  6
FIN
 62
     7
100
AcDbVertex
100
AcDb2dVertex
 10
36.28778076171875
 20
10.60887145996094
 30
0.0
  0
VERTEX
  5
200
330
1F9
100
AcDbEntity
  8
A
  6
FIN
 62
     7
100
AcDbVertex
100
AcDb2dVertex
 10
36.37858581542969
 20
10.66259765625
 30
0.0
  0
VERTEX
  5
201
330
1F9
100
AcDbEntity
  8
A
  6
FIN
 62
     7
100
AcDbVertex
100
AcDb2dVertex
 10
36.46365356445313
 20
10.72502136230469
 30
0.0
  0
VERTEX
  5
202
330
1F9
100
AcDbEntity
  8
A
  6
FIN
 62
     7
100
AcDbVertex
100
AcDb2dVertex
 10
36.54215240478516
 20
10.79551696777344
 30
0.0
  0
VERTEX
  5
203
330
1F9
100
AcDbEntity
  8
A
  6
FIN
 62
     7
100
AcDbVertex
100
AcDb2dVertex
 10
36.61331939697266
 20
10.8734130859375
 30
0.0
  0
VERTEX
  5
204
330
1F9
100
AcDbEntity
  8
A
  6
FIN
 62
     7
100
AcDbVertex
100
AcDb2dVertex
 10
36.67646026611328
 20
10.95793914794922
 30
0.0
  0
VERTEX
  5
205
330
1F9
100
AcDbEntity
  8
A
  6
FIN
 62
     7
100
AcDbVertex
100
AcDb2dVertex
 10
36.73097229003906
 20
11.04827880859375
 30
0.0
  0
VERTEX
  5
206
330
1F9
100
AcDbEntity
  8
A
  6
FIN
 62
     7
100
AcDbVertex
100
AcDb2dVertex
 10
36.77631378173828
 20
11.14354705810547
 30
0.0
  0
VERTEX
  5
207
330
1F9
100
AcDbEntity
  8
A
  6
FIN
 62
     7
100
AcDbVertex
100
AcDb2dVertex
 10
36.81204605102539
 20
11.24282073974609
 30
0.0
  0
VERTEX
  5
208
330
1F9
100
AcDbEntity
  8
A
  6
FIN
 62
     7
100
AcDbVertex
100
AcDb2dVertex
 10
36.83782196044922
 20
11.34513092041016
 30
0.0
  0
VERTEX
  5
209
330
1F9
100
AcDbEntity
  8
A
  6
FIN
 62
     7
100
AcDbVertex
100
AcDb2dVertex
 10
36.8533821105957
 20
11.44948577880859
 30
0.0
  0
VERTEX
  5
20A
330
1F9
100
AcDbEntity
  8
A
  6
FIN
 62
     7
100
AcDbVertex
100
AcDb2dVertex
 10
36.85858917236328
 20
11.55487060546875
 30
0.0
  0
VERTEX
  5
20B
330
1F9
100
AcDbEntity
  8
A
  6
FIN
 62
     7
100
AcDbVertex
100
AcDb2dVertex
 10
36.85858917236328
 20
11.55487060546875
 30
0.0
  0
VERTEX
  5
20C
330
1F9
100
AcDbEntity
  8
A
  6
FIN
 62
     7
100
AcDbVertex
100
AcDb2dVertex
 10
36.85379409790039
 20
11.656005859375
 30
0.0
  0
VERTEX
  5
20D
330
1F9
100
AcDbEntity
  8
A
  6
FIN
 62
     7
100
AcDbVertex
100
AcDb2dVertex
 10
36.83945846557617
 20
11.75623321533203
 30
0.0
  0
VERTEX
  5
20E
330
1F9
100
AcDbEntity
  8
A
  6
FIN
 62
     7
100
AcDbVertex
100
AcDb2dVertex
 10
36.81570434570313
 20
11.85466003417969
 30
0.0
  0
VERTEX
  5
20F
330
1F9
100
AcDbEntity
  8
A
  6
FIN
 62
     7
100
AcDbVertex
100
AcDb2dVertex
 10
36.78274917602539
 20
11.95039367675781
 30
0.0
  0
VERTEX
  5
210
330
1F9
100
AcDbEntity
  8
A
  6
FIN
 62
     7
100
AcDbVertex
100
AcDb2dVertex
 10
36.74089050292969
 20
12.04258728027344
 30
0.0
  0
VERTEX
  5
211
330
1F9
100
AcDbEntity
  8
A
  6
FIN
 62
     7
100
AcDbVertex
100
AcDb2dVertex
 10
36.69049453735352
 20
12.13040161132813
 30
0.0
  0
VERTEX
  5
212
330
1F9
100
AcDbEntity
  8
A
  6
FIN
 62
     7
100
AcDbVertex
100
AcDb2dVertex
 10
36.63201904296875
 20
12.21305847167969
 30
0.0
  0
VERTEX
  5
213
330
1F9
100
AcDbEntity
  8
A
  6
FIN
 62
     7
100
AcDbVertex
100
AcDb2dVertex
 10
36.56598663330078
 20
12.28981781005859
 30
0.0
  0
VERTEX
  5
214
330
1F9
100
AcDbEntity
  8
A
  6
FIN
 62
     7
100
AcDbVertex
100
AcDb2dVertex
 10
36.49299240112305
 20
12.35997772216797
 30
0.0
  0
VERTEX
  5
215
330
1F9
100
AcDbEntity
  8
A
  6
FIN
 62
     7
100
AcDbVertex
100
AcDb2dVertex
 10
36.41369247436523
 20
12.42293548583984
 30
0.0
  0
VERTEX
  5
216
330
1F9
100
AcDbEntity
  8
A
  6
FIN
 62
     7
100
AcDbVertex
100
AcDb2dVertex
 10
36.32879257202148
 20
12.47809600830078
 30
0.0
  0
VERTEX
  5
217
330
1F9
100
AcDbEntity
  8
A
  6
FIN
 62
     7
100
AcDbVertex
100
AcDb2dVertex
 10
36.23905563354492
 20
12.52498626708984
 30
0.0
  0
VERTEX
  5
218
330
1F9
100
AcDbEntity
  8
A
  6
FIN
 62
     7
100
AcDbVertex
100
AcDb2dVertex
 10
36.14528656005859
 20
12.56317901611328
 30
0.0
  0
VERTEX
  5
219
330
1F9
100
AcDbEntity
  8
A
  6
FIN
 62
     7
100
AcDbVertex
100
AcDb2dVertex
 10
36.04832077026367
 20
12.59233093261719
 30
0.0
  0
VERTEX
  5
21A
330
1F9
100
AcDbEntity
  8
A
  6
FIN
 62
     7
100
AcDbVertex
100
AcDb2dVertex
 10
36.04832077026367
 20
12.59233093261719
 30
0.0
  0
SEQEND
  5
1FA
330
1F9
100
AcDbEntity
  8
A
  6
FIN
  0
POLYLINE
  5
21B
330
56
100
AcDbEntity
  8
A
  6
FIN
 62
     7
100
AcDb2dPolyline
 66
     1
 10
0.0
 20
0.0
 30
0.0
  0
VERTEX
  5
21D
330
21B
100
AcDbEntity
  8
A
  6
FIN
 62
     7
100
AcDbVertex
100
AcDb2dVertex
 10
23.75551605224609
 20
10.32810211181641
 30
0.0
  0
VERTEX
  5
21E
330
21B
100
AcDbEntity
  8
A
  6
FIN
 62
     7
100
AcDbVertex
100
AcDb2dVertex
 10
23.74459838867188
 20
10.55010223388672
 30
0.0
  0
VERTEX
  5
21F
330
21B
100
AcDbEntity
  8
A
  6
FIN
 62
     7
100
AcDbVertex
100
AcDb2dVertex
 10
23.71198654174805
 20
10.76996612548828
 30
0.0
  0
VERTEX
  5
220
330
21B
100
AcDbEntity
  8
A
  6
FIN
 62
     7
100
AcDbVertex
100
AcDb2dVertex
 10
23.65797805786133
 20
10.98556518554688
 30
0.0
  0
VERTEX
  5
221
330
21B
100
AcDbEntity
  8
A
  6
FIN
 62
     7
100
AcDbVertex
100
AcDb2dVertex
 10
23.58309936523438
 20
11.19484710693359
 30
0.0
  0
VERTEX
  5
222
330
21B
100
AcDbEntity
  8
A
  6
FIN
 62
     7
100
AcDbVertex
100
AcDb2dVertex
 10
23.48806762695313
 20
11.39577484130859
 30
0.0
  0
VERTEX
  5
223
330
21B
100
AcDbEntity
  8
A
  6
FIN
 62
     7
100
AcDbVertex
100
AcDb2dVertex
 10
23.37379837036133
 20
11.58641815185547
 30
0.0
  0
VERTEX
  5
224
330
21B
100
AcDbEntity
  8
A
  6
FIN
 62
     7
100
AcDbVertex
100
AcDb2dVertex
 10
23.24139404296875
 20
11.76494598388672
 30
0.0
  0
VERTEX
  5
225
330
21B
100
AcDbEntity
  8
A
  6
FIN
 62
     7
100
AcDbVertex
100
AcDb2dVertex
 10
23.09212875366211
 20
11.92962646484375
 30
0.0
  0
VERTEX
  5
226
330
21B
100
AcDbEntity
  8
A
  6
FIN
 62
     7
100
AcDbVertex
100
AcDb2dVertex
 10
22.92743682861328
 20
12.07889556884766
 30
0.0
  0
VERTEX
  5
227
330
21B
100
AcDbEntity
  8
A
  6
FIN
 62
     7
100
AcDbVertex
100
AcDb2dVertex
 10
22.7489128112793
 20
12.2113037109375
 30
0.0
  0
VERTEX
  5
228
330
21B
100
AcDbEntity
  8
A
  6
FIN
 62
     7
100
AcDbVertex
100
AcDb2dVertex
 10
22.55826187133789
 20
12.32556915283203
 30
0.0
  0
VERTEX
  5
229
330
21B
100
AcDbEntity
  8
A
  6
FIN
 62
     7
100
AcDbVertex
100
AcDb2dVertex
 10
22.35733413696289
 20
12.42059326171875
 30
0.0
  0
VERTEX
  5
22A
330
21B
100
AcDbEntity
  8
A
  6
FIN
 62
     7
100
AcDbVertex
100
AcDb2dVertex
 10
22.14806365966797
 20
12.49547576904297
 30
0.0
  0
VERTEX
  5
22B
330
21B
100
AcDbEntity
  8
A
  6
FIN
 62
     7
100
AcDbVertex
100
AcDb2dVertex
 10
21.93245315551758
 20
12.54948425292969
 30
0.0
  0
VERTEX
  5
22C
330
21B
100
AcDbEntity
  8
A
  6
FIN
 62
     7
100
AcDbVertex
100
AcDb2dVertex
 10
21.71259307861328
 20
12.58209991455078
 30
0.0
  0
VERTEX
  5
22D
330
21B
100
AcDbEntity
  8
A
  6
FIN
 62
     7
100
AcDbVertex
100
AcDb2dVertex
 10
21.49059677124023
 20
12.59300231933594
 30
0.0
  0
VERTEX
  5
22E
330
21B
100
AcDbEntity
  8
A
  6
FIN
 62
     7
100
AcDbVertex
100
AcDb2dVertex
 10
21.49059677124023
 20
12.59300231933594
 30
0.0
  0
VERTEX
  5
22F
330
21B
100
AcDbEntity
  8
A
  6
FIN
 62
     7
100
AcDbVertex
100
AcDb2dVertex
 10
21.26859664916992
 20
12.58209991455078
 30
0.0
  0
VERTEX
  5
230
330
21B
100
AcDbEntity
  8
A
  6
FIN
 62
     7
100
AcDbVertex
100
AcDb2dVertex
 10
21.04873275756836
 20
12.54948425292969
 30
0.0
  0
VERTEX
  5
231
330
21B
100
AcDbEntity
  8
A
  6
FIN
 62
     7
100
AcDbVertex
100
AcDb2dVertex
 10
20.83312606811523
 20
12.49547576904297
 30
0.0
  0
VERTEX
  5
232
330
21B
100
AcDbEntity
  8
A
  6
FIN
 62
     7
100
AcDbVertex
100
AcDb2dVertex
 10
20.62385559082031
 20
12.42059326171875
 30
0.0
  0
VERTEX
  5
233
330
21B
100
AcDbEntity
  8
A
  6
FIN
 62
     7
100
AcDbVertex
100
AcDb2dVertex
 10
20.42292404174805
 20
12.32556915283203
 30
0.0
  0
VERTEX
  5
234
330
21B
100
AcDbEntity
  8
A
  6
FIN
 62
     7
100
AcDbVertex
100
AcDb2dVertex
 10
20.23227691650391
 20
12.2113037109375
 30
0.0
  0
VERTEX
  5
235
330
21B
100
AcDbEntity
  8
A
  6
FIN
 62
     7
100
AcDbVertex
100
AcDb2dVertex
 10
20.05375671386719
 20
12.07889556884766
 30
0.0
  0
VERTEX
  5
236
330
21B
100
AcDbEntity
  8
A
  6
FIN
 62
     7
100
AcDbVertex
100
AcDb2dVertex
 10
19.88906478881836
 20
11.92963409423828
 30
0.0
  0
VERTEX
  5
237
330
21B
100
AcDbEntity
  8
A
  6
FIN
 62
     7
100
AcDbVertex
100
AcDb2dVertex
 10
19.73979568481445
 20
11.76494598388672
 30
0.0
  0
VERTEX
  5
238
330
21B
100
AcDbEntity
  8
A
  6
FIN
 62
     7
100
AcDbVertex
100
AcDb2dVertex
 10
19.60738754272461
 20
11.58641815185547
 30
0.0
  0
VERTEX
  5
239
330
21B
100
AcDbEntity
  8
A
  6
FIN
 62
     7
100
AcDbVertex
100
AcDb2dVertex
 10
19.49312210083008
 20
11.39577484130859
 30
0.0
  0
VERTEX
  5
23A
330
21B
100
AcDbEntity
  8
A
  6
FIN
 62
     7
100
AcDbVertex
100
AcDb2dVertex
 10
19.39808654785156
 20
11.19484710693359
 30
0.0
  0
VERTEX
  5
23B
330
21B
100
AcDbEntity
  8
A
  6
FIN
 62
     7
100
AcDbVertex
100
AcDb2dVertex
 10
19.32320785522461
 20
10.98557281494141
 30
0.0
  0
VERTEX
  5
23C
330
21B
100
AcDbEntity
  8
A
  6
FIN
 62
     7
100
AcDbVertex
100
AcDb2dVertex
 10
19.26919937133789
 20
10.76997375488281
 30
0.0
  0
VERTEX
  5
23D
330
21B
100
AcDbEntity
  8
A
  6
FIN
 62
     7
100
AcDbVertex
100
AcDb2dVertex
 10
19.2365837097168
 20
10.55010986328125
 30
0.0
  0
VERTEX
  5
23E
330
21B
100
AcDbEntity
  8
A
  6
FIN
 62
     7
100
AcDbVertex
100
AcDb2dVertex
 10
19.22567367553711
 20
10.32810974121094
 30
0.0
  0
VERTEX
  5
23F
330
21B
100
AcDbEntity
  8
A
  6
FIN
 62
     7
100
AcDbVertex
100
AcDb2dVertex
 10
19.22567367553711
 20
10.32810974121094
 30
0.0
  0
SEQEND
  5
21C
330
21B
100
AcDbEntity
  8
A
  6
FIN
  0
POLYLINE
  5
240
330
56
100
AcDbEntity
  8
A
  6
FIN
 62
     7
100
AcDb2dPolyline
 66
     1
 10
0.0
 20
0.0
 30
0.0
  0
VERTEX
  5
242
330
240
100
AcDbEntity
  8
A
  6
FIN
 62
     7
100
AcDbVertex
100
AcDb2dVertex
 10
19.87366104125977
 20
14.20995330810547
 30
0.0
  0
VERTEX
  5
243
330
240
100
AcDbEntity
  8
A
  6
FIN
 62
     7
100
AcDbVertex
100
AcDb2dVertex
 10
21.65208435058594
 20
14.20995330810547
 30
0.0
  0
SEQEND
  5
241
330
240
100
AcDbEntity
  8
A
  6
FIN
  0
POLYLINE
  5
244
330
56
100
AcDbEntity
  8
A
  6
FIN
 62
     7
100
AcDb2dPolyline
 66
     1
 10
0.0
 20
0.0
 30
0.0
  0
VERTEX
  5
246
330
244
100
AcDbEntity
  8
A
  6
FIN
 62
     7
100
AcDbVertex
100
AcDb2dVertex
 10
20.68213272094727
 20
18.73877716064453
 30
0.0
  0
VERTEX
  5
247
330
244
100
AcDbEntity
  8
A
  6
FIN
 62
     7
100
AcDbVertex
100
AcDb2dVertex
 10
19.87366104125977
 20
14.20995330810547
 30
0.0
  0
SEQEND
  5
245
330
244
100
AcDbEntity
  8
A
  6
FIN
  0
POLYLINE
  5
248
330
56
100
AcDbEntity
  8
A
  6
FIN
 62
     7
100
AcDb2dPolyline
 66
     1
 10
0.0
 20
0.0
 30
0.0
  0
VERTEX
  5
24A
330
248
100
AcDbEntity
  8
A
  6
FIN
 62
     7
100
AcDbVertex
100
AcDb2dVertex
 10
19.2266845703125
 20
10.32807922363281
 30
0.0
  0
VERTEX
  5
24B
330
248
100
AcDbEntity
  8
A
  6
FIN
 62
     7
100
AcDbVertex
100
AcDb2dVertex
 10
19.23634338378906
 20
10.11919403076172
 30
0.0
  0
VERTEX
  5
24C
330
248
100
AcDbEntity
  8
A
  6
FIN
 62
     7
100
AcDbVertex
100
AcDb2dVertex
 10
19.26523590087891
 20
9.912094116210938
 30
0.0
  0
VERTEX
  5
24D
330
248
100
AcDbEntity
  8
A
  6
FIN
 62
     7
100
AcDbVertex
100
AcDb2dVertex
 10
19.3131103515625
 20
9.708541870117188
 30
0.0
  0
VERTEX
  5
24E
330
248
100
AcDbEntity
  8
A
  6
FIN
 62
     7
100
AcDbVertex
100
AcDb2dVertex
 10
19.37956237792969
 20
9.510261535644531
 30
0.0
  0
VERTEX
  5
24F
330
248
100
AcDbEntity
  8
A
  6
FIN
 62
     7
100
AcDbVertex
100
AcDb2dVertex
 10
19.46402740478516
 20
9.3189697265625
 30
0.0
  0
VERTEX
  5
250
330
248
100
AcDbEntity
  8
A
  6
FIN
 62
     7
100
AcDbVertex
100
AcDb2dVertex
 10
19.56578063964844
 20
9.13629150390625
 30
0.0
  0
VERTEX
  5
251
330
248
100
AcDbEntity
  8
A
  6
FIN
 62
     7
100
AcDbVertex
100
AcDb2dVertex
 10
19.68395614624023
 20
8.963775634765625
 30
0.0
  0
VERTEX
  5
252
330
248
100
AcDbEntity
  8
A
  6
FIN
 62
     7
100
AcDbVertex
100
AcDb2dVertex
 10
19.81754302978516
 20
8.802894592285156
 30
0.0
  0
VERTEX
  5
253
330
248
100
AcDbEntity
  8
A
  6
FIN
 62
     7
100
AcDbVertex
100
AcDb2dVertex
 10
19.96541213989258
 20
8.655036926269531
 30
0.0
  0
VERTEX
  5
254
330
248
100
AcDbEntity
  8
A
  6
FIN
 62
     7
100
AcDbVertex
100
AcDb2dVertex
 10
20.12628173828125
 20
8.521446228027344
 30
0.0
  0
VERTEX
  5
255
330
248
100
AcDbEntity
  8
A
  6
FIN
 62
     7
100
AcDbVertex
100
AcDb2dVertex
 10
20.29880523681641
 20
8.403274536132813
 30
0.0
  0
VERTEX
  5
256
330
248
100
AcDbEntity
  8
A
  6
FIN
 62
     7
100
AcDbVertex
100
AcDb2dVertex
 10
20.48147964477539
 20
8.301513671875
 30
0.0
  0
VERTEX
  5
257
330
248
100
AcDbEntity
  8
A
  6
FIN
 62
     7
100
AcDbVertex
100
AcDb2dVertex
 10
20.67277526855469
 20
8.217056274414063
 30
0.0
  0
VERTEX
  5
258
330
248
100
AcDbEntity
  8
A
  6
FIN
 62
     7
100
AcDbVertex
100
AcDb2dVertex
 10
20.87104415893555
 20
8.150604248046875
 30
0.0
  0
VERTEX
  5
259
330
248
100
AcDbEntity
  8
A
  6
FIN
 62
     7
100
AcDbVertex
100
AcDb2dVertex
 10
21.07460021972656
 20
8.10272216796875
 30
0.0
  0
VERTEX
  5
25A
330
248
100
AcDbEntity
  8
A
  6
FIN
 62
     7
100
AcDbVertex
100
AcDb2dVertex
 10
21.28171157836914
 20
8.073837280273438
 30
0.0
  0
VERTEX
  5
25B
330
248
100
AcDbEntity
  8
A
  6
FIN
 62
     7
100
AcDbVertex
100
AcDb2dVertex
 10
21.49059677124023
 20
8.064178466796875
 30
0.0
  0
VERTEX
  5
25C
330
248
100
AcDbEntity
  8
A
  6
FIN
 62
     7
100
AcDbVertex
100
AcDb2dVertex
 10
21.49059677124023
 20
8.064178466796875
 30
0.0
  0
VERTEX
  5
25D
330
248
100
AcDbEntity
  8
A
  6
FIN
 62
     7
100
AcDbVertex
100
AcDb2dVertex
 10
21.69947814941406
 20
8.073837280273438
 30
0.0
  0
VERTEX
  5
25E
330
248
100
AcDbEntity
  8
A
  6
FIN
 62
     7
100
AcDbVertex
100
AcDb2dVertex
 10
21.90658950805664
 20
8.10272216796875
 30
0.0
  0
VERTEX
  5
25F
330
248
100
AcDbEntity
  8
A
  6
FIN
 62
     7
100
AcDbVertex
100
AcDb2dVertex
 10
22.11014175415039
 20
8.150604248046875
 30
0.0
  0
VERTEX
  5
260
330
248
100
AcDbEntity
  8
A
  6
FIN
 62
     7
100
AcDbVertex
100
AcDb2dVertex
 10
22.30840682983398
 20
8.217056274414063
 30
0.0
  0
VERTEX
  5
261
330
248
100
AcDbEntity
  8
A
  6
FIN
 62
     7
100
AcDbVertex
100
AcDb2dVertex
 10
22.49970626831055
 20
8.301513671875
 30
0.0
  0
VERTEX
  5
262
330
248
100
AcDbEntity
  8
A
  6
FIN
 62
     7
100
AcDbVertex
100
AcDb2dVertex
 10
22.6823844909668
 20
8.403274536132813
 30
0.0
  0
VERTEX
  5
263
330
248
100
AcDbEntity
  8
A
  6
FIN
 62
     7
100
AcDbVertex
100
AcDb2dVertex
 10
22.85490036010742
 20
8.521446228027344
 30
0.0
  0
VERTEX
  5
264
330
248
100
AcDbEntity
  8
A
  6
FIN
 62
     7
100
AcDbVertex
100
AcDb2dVertex
 10
23.01578140258789
 20
8.655036926269531
 30
0.0
  0
VERTEX
  5
265
330
248
100
AcDbEntity
  8
A
  6
FIN
 62
     7
100
AcDbVertex
100
AcDb2dVertex
 10
23.16364288330078
 20
8.802894592285156
 30
0.0
  0
VERTEX
  5
266
330
248
100
AcDbEntity
  8
A
  6
FIN
 62
     7
100
AcDbVertex
100
AcDb2dVertex
 10
23.29723358154297
 20
8.963775634765625
 30
0.0
  0
VERTEX
  5
267
330
248
100
AcDbEntity
  8
A
  6
FIN
 62
     7
100
AcDbVertex
100
AcDb2dVertex
 10
23.4154052734375
 20
9.13629150390625
 30
0.0
  0
VERTEX
  5
268
330
248
100
AcDbEntity
  8
A
  6
FIN
 62
     7
100
AcDbVertex
100
AcDb2dVertex
 10
23.51716232299805
 20
9.3189697265625
 30
0.0
  0
VERTEX
  5
269
330
248
100
AcDbEntity
  8
A
  6
FIN
 62
     7
100
AcDbVertex
100
AcDb2dVertex
 10
23.60162353515625
 20
9.510261535644531
 30
0.0
  0
VERTEX
  5
26A
330
248
100
AcDbEntity
  8
A
  6
FIN
 62
     7
100
AcDbVertex
100
AcDb2dVertex
 10
23.6680793762207
 20
9.708541870117188
 30
0.0
  0
VERTEX
  5
26B
330
248
100
AcDbEntity
  8
A
  6
FIN
 62
     7
100
AcDbVertex
100
AcDb2dVertex
 10
23.7159538269043
 20
9.912094116210938
 30
0.0
  0
VERTEX
  5
26C
330
248
100
AcDbEntity
  8
A
  6
FIN
 62
     7
100
AcDbVertex
100
AcDb2dVertex
 10
23.74484252929688
 20
10.11919403076172
 30
0.0
  0
VERTEX
  5
26D
330
248
100
AcDbEntity
  8
A
  6
FIN
 62
     7
100
AcDbVertex
100
AcDb2dVertex
 10
23.75450134277344
 20
10.32807922363281
 30
0.0
  0
VERTEX
  5
26E
330
248
100
AcDbEntity
  8
A
  6
FIN
 62
     7
100
AcDbVertex
100
AcDb2dVertex
 10
23.75450134277344
 20
10.32809448242188
 30
0.0
  0
SEQEND
  5
249
330
248
100
AcDbEntity
  8
A
  6
FIN
  0
ATTDEF
  5
26F
330
56
100
AcDbEntity
  8
A
  6
FIN
 62
     2
100
AcDbText
 10
102.7103805541992
 20
2.710005283355713
 30
0.0
 40
1.992857142857143
  1

 41
0.9659999561309813
 72
     4
 11
102.7103805541992
 21
2.710005283355713
 31
0.0
100
AcDbAttributeDefinition
  3

  2
$:12
 70
     0
 74
     2
  0
ATTDEF
  5
270
330
56
100
AcDbEntity
  8
A
  6
FIN
 62
     7
100
AcDbText
 10
417.4982142857143
 20
296.0
 30
0.0
 40
0.9964285714285714
  1

 50
90.0
 41
1.207499945163727
 72
     2
 11
417.0
 21
296.0
 31
0.0
100
AcDbAttributeDefinition
  3

  2
$DOSSIER
 70
     0
 74
     2
  0
LINE
  5
271
330
56
100
AcDbEntity
  8
A
  6
MOYEN
 62
     4
100
AcDbLine
 10
0.0
 20
292.0
 30
0.0
 11
415.0
 21
292.0
 31
0.0
  0
TEXT
  5
273
330
56
100
AcDbEntity
  8
A
  6
FIN
 62
     7
100
AcDbText
 10
9.620360834270477
 20
292.7728524414063
 30
0.0
 40
2.325
  1
1
 41
0.9659999561309813
  7
ARIAL
 72
     4
 11
10.375
 21
293.9400024414063
 31
0.0
100
AcDbText
  0
LINE
  5
274
330
56
100
AcDbEntity
  8
A
  6
MOYEN
 62
     4
100
AcDbLine
 10
20.75
 20
292.0
 30
0.0
 11
20.75
 21
297.0
 31
0.0
  0
TEXT
  5
275
330
56
100
AcDbEntity
  8
A
  6
FIN
 62
     7
100
AcDbText
 10
30.290628659217
 20
292.7728524414063
 30
0.0
 40
2.325
  1
2
 41
0.9659999561309813
  7
ARIAL
 72
     4
 11
31.12499904632568
 21
293.9400024414063
 31
0.0
100
AcDbText
  0
LINE
  5
276
330
56
100
AcDbEntity
  8
A
  6
MOYEN
 62
     4
100
AcDbLine
 10
41.5
 20
292.0
 30
0.0
 11
41.5
 21
297.0
 31
0.0
  0
TEXT
  5
277
330
56
100
AcDbEntity
  8
A
  6
FIN
 62
     7
100
AcDbText
 10
51.00806333937025
 20
292.7926149414063
 30
0.0
 40
2.325
  1
3
 41
0.9659999561309813
  7
ARIAL
 72
     4
 11
51.875
 21
293.9400024414063
 31
0.0
100
AcDbText
  0
LINE
  5
278
330
56
100
AcDbEntity
  8
A
  6
MOYEN
 62
     4
100
AcDbLine
 10
62.25
 20
292.0
 30
0.0
 11
62.25
 21
297.0
 31
0.0
  0
TEXT
  5
279
330
56
100
AcDbEntity
  8
A
  6
FIN
 62
     7
100
AcDbText
 10
71.80860102677262
 20
292.7786649414063
 30
0.0
 40
2.325
  1
4
 41
0.9659999561309813
  7
ARIAL
 72
     4
 11
72.62500381469727
 21
293.9400024414063
 31
0.0
100
AcDbText
  0
LINE
  5
27A
330
56
100
AcDbEntity
  8
A
  6
MOYEN
 62
     4
100
AcDbLine
 10
83.0
 20
292.0
 30
0.0
 11
83.0
 21
297.0
 31
0.0
  0
TEXT
  5
27B
330
56
100
AcDbEntity
  8
A
  6
FIN
 62
     7
100
AcDbText
 10
92.5013293043735
 20
292.8135399414063
 30
0.0
 40
2.325
  1
5
 41
0.9659999561309813
  7
ARIAL
 72
     4
 11
93.37500381469727
 21
293.9400024414063
 31
0.0
100
AcDbText
  0
LINE
  5
27C
330
56
100
AcDbEntity
  8
A
  6
MOYEN
 62
     4
100
AcDbLine
 10
103.75
 20
292.0
 30
0.0
 11
103.75
 21
297.0
 31
0.0
  0
TEXT
  5
27D
330
56
100
AcDbEntity
  8
A
  6
FIN
 62
     7
100
AcDbText
 10
113.2659279787105
 20
292.7926149414063
 30
0.0
 40
2.325
  1
6
 41
0.9659999561309813
  7
ARIAL
 72
     4
 11
114.1250038146973
 21
293.9400024414063
 31
0.0
100
AcDbText
  0
LINE
  5
27E
330
56
100
AcDbEntity
  8
A
  6
MOYEN
 62
     4
100
AcDbLine
 10
124.5
 20
292.0
 30
0.0
 11
124.5
 21
297.0
 31
0.0
  0
TEXT
  5
27F
330
56
100
AcDbEntity
  8
A
  6
FIN
 62
     7
100
AcDbText
 10
134.0013254896763
 20
292.7926149414063
 30
0.0
 40
2.325
  1
7
 41
0.9659999561309813
  7
ARIAL
 72
     4
 11
134.875
 21
293.9400024414063
 31
0.0
100
AcDbText
  0
LINE
  5
280
330
56
100
AcDbEntity
  8
A
  6
MOYEN
 62
     4
100
AcDbLine
 10
145.25
 20
292.0
 30
0.0
 11
145.25
 21
297.0
 31
0.0
  0
TEXT
  5
281
330
56
100
AcDbEntity
  8
A
  6
FIN
 62
     7
100
AcDbText
 10
154.7580633393702
 20
292.7926149414063
 30
0.0
 40
2.325
  1
8
 41
0.9659999561309813
  7
ARIAL
 72
     4
 11
155.625
 21
293.9400024414063
 31
0.0
100
AcDbText
  0
LINE
  5
282
330
56
100
AcDbEntity
  8
A
  6
MOYEN
 62
     4
100
AcDbLine
 10
166.0
 20
292.0
 30
0.0
 11
166.0
 21
297.0
 31
0.0
  0
TEXT
  5
283
330
56
100
AcDbEntity
  8
A
  6
FIN
 62
     7
100
AcDbText
 10
175.5069403644212
 20
292.7926149414063
 30
0.0
 40
2.325
  1
9
 41
0.9659999561309813
  7
ARIAL
 72
     4
 11
176.375
 21
293.9400024414063
 31
0.0
100
AcDbText
  0
LINE
  5
284
330
56
100
AcDbEntity
  8
A
  6
MOYEN
 62
     4
100
AcDbLine
 10
186.75
 20
292.0
 30
0.0
 11
186.75
 21
297.0
 31
0.0
  0
TEXT
  5
285
330
56
100
AcDbEntity
  8
A
  6
FIN
 62
     7
100
AcDbText
 10
195.2866900084833
 20
292.7926149414063
 30
0.0
 40
2.325
  1
10
 41
0.9659999561309813
  7
ARIAL
 72
     4
 11
197.125
 21
293.9400024414063
 31
0.0
100
AcDbText
  0
LINE
  5
286
330
56
100
AcDbEntity
  8
A
  6
MOYEN
 62
     4
100
AcDbLine
 10
207.5
 20
292.0
 30
0.0
 11
207.5
 21
297.0
 31
0.0
  0
TEXT
  5
287
330
56
100
AcDbEntity
  8
A
  6
FIN
 62
     7
100
AcDbText
 10
216.2489322738447
 20
292.7728524414063
 30
0.0
 40
2.325
  1
11
 41
0.9659999561309813
  7
ARIAL
 72
     4
 11
217.875
 21
293.9400024414063
 31
0.0
100
AcDbText
  0
LINE
  5
288
330
56
100
AcDbEntity
  8
A
  6
MOYEN
 62
     4
100
AcDbLine
 10
228.25
 20
292.0
 30
0.0
 11
228.25
 21
297.0
 31
0.0
  0
TEXT
  5
289
330
56
100
AcDbEntity
  8
A
  6
FIN
 62
     7
100
AcDbText
 10
236.7945508331263
 20
292.7728524414063
 30
0.0
 40
2.325
  1
12
 41
0.9659999561309813
  7
ARIAL
 72
     4
 11
238.625
 21
293.9400024414063
 31
0.0
100
AcDbText
  0
LINE
  5
28A
330
56
100
AcDbEntity
  8
A
  6
MOYEN
 62
     4
100
AcDbLine
 10
249.0
 20
292.0
 30
0.0
 11
249.0
 21
297.0
 31
0.0
  0
TEXT
  5
28B
330
56
100
AcDbEntity
  8
A
  6
FIN
 62
     7
100
AcDbText
 10
257.5321828498982
 20
292.7926149414063
 30
0.0
 40
2.325
  1
13
 41
0.9659999561309813
  7
ARIAL
 72
     4
 11
259.3749847412109
 21
293.9400024414063
 31
0.0
100
AcDbText
  0
LINE
  5
28C
330
56
100
AcDbEntity
  8
A
  6
MOYEN
 62
     4
100
AcDbLine
 10
269.75
 20
292.0
 30
0.0
 11
269.75
 21
297.0
 31
0.0
  0
TEXT
  5
28D
330
56
100
AcDbEntity
  8
A
  6
FIN
 62
     7
100
AcDbText
 10
278.2866747496942
 20
292.7728524414063
 30
0.0
 40
2.325
  1
14
 41
0.9659999561309813
  7
ARIAL
 72
     4
 11
280.1249847412109
 21
293.9400024414063
 31
0.0
100
AcDbText
  0
LINE
  5
28E
330
56
100
AcDbEntity
  8
A
  6
MOYEN
 62
     4
100
AcDbLine
 10
290.5
 20
292.0
 30
0.0
 11
290.5
 21
297.0
 31
0.0
  0
TEXT
  5
28F
330
56
100
AcDbEntity
  8
A
  6
FIN
 62
     7
100
AcDbText
 10
299.0243220252552
 20
292.7926149414063
 30
0.0
 40
2.325
  1
15
 41
0.9659999561309813
  7
ARIAL
 72
     4
 11
300.8749847412109
 21
293.9400024414063
 31
0.0
100
AcDbText
  0
LINE
  5
290
330
56
100
AcDbEntity
  8
A
  6
MOYEN
 62
     4
100
AcDbLine
 10
311.25
 20
292.0
 30
0.0
 11
311.25
 21
297.0
 31
0.0
  0
TEXT
  5
291
330
56
100
AcDbEntity
  8
A
  6
FIN
 62
     7
100
AcDbText
 10
319.7821828498982
 20
292.7926149414063
 30
0.0
 40
2.325
  1
16
 41
0.9659999561309813
  7
ARIAL
 72
     4
 11
321.6249847412109
 21
293.9400024414063
 31
0.0
100
AcDbText
  0
LINE
  5
292
330
56
100
AcDbEntity
  8
A
  6
MOYEN
 62
     4
100
AcDbLine
 10
332.0
 20
292.0
 30
0.0
 11
332.0
 21
297.0
 31
0.0
  0
TEXT
  5
293
330
56
100
AcDbEntity
  8
A
  6
FIN
 62
     7
100
AcDbText
 10
340.5333058248472
 20
292.7728524414063
 30
0.0
 40
2.325
  1
17
 41
0.9659999561309813
  7
ARIAL
 72
     4
 11
342.3749847412109
 21
293.9400024414063
 31
0.0
100
AcDbText
  0
LINE
  5
294
330
56
100
AcDbEntity
  8
A
  6
MOYEN
 62
     4
100
AcDbLine
 10
352.75
 20
292.0
 30
0.0
 11
352.75
 21
297.0
 31
0.0
  0
TEXT
  5
295
330
56
100
AcDbEntity
  8
A
  6
FIN
 62
     7
100
AcDbText
 10
361.2799369000002
 20
292.7926149414063
 30
0.0
 40
2.325
  1
18
 41
0.9659999561309813
  7
ARIAL
 72
     4
 11
363.1249847412109
 21
293.9400024414063
 31
0.0
100
AcDbText
  0
LINE
  5
296
330
56
100
AcDbEntity
  8
A
  6
MOYEN
 62
     4
100
AcDbLine
 10
373.5
 20
292.0
 30
0.0
 11
373.5
 21
297.0
 31
0.0
  0
TEXT
  5
297
330
56
100
AcDbEntity
  8
A
  6
FIN
 62
     7
100
AcDbText
 10
382.0299369000002
 20
292.7926149414063
 30
0.0
 40
2.325
  1
19
 41
0.9659999561309813
  7
ARIAL
 72
     4
 11
383.8749847412109
 21
293.9400024414063
 31
0.0
100
AcDbText
  0
LINE
  5
298
330
56
100
AcDbEntity
  8
A
  6
MOYEN
 62
     4
100
AcDbLine
 10
394.25
 20
292.0
 30
0.0
 11
394.25
 21
297.0
 31
0.0
  0
TEXT
  5
299
330
56
100
AcDbEntity
  8
A
  6
FIN
 62
     7
100
AcDbText
 10
402.9113249690335
 20
292.7926149414063
 30
0.0
 40
2.325
  1
20
 41
0.9659999561309813
  7
ARIAL
 72
     4
 11
404.6249847412109
 21
293.9400024414063
 31
0.0
100
AcDbText
  0
LINE
  5
29A
330
56
100
AcDbEntity
  8
A
  6
MOYEN
 62
     4
100
AcDbLine
 10
415.0
 20
292.0
 30
0.0
 11
415.0
 21
297.0
 31
0.0
  0
POLYLINE
  5
29B
330
56
100
AcDbEntity
  8
A
  6
MOYEN
 62
     4
100
AcDb2dPolyline
 66
     1
 10
0.0
 20
0.0
 30
0.0
  0
VERTEX
  5
29D
330
29B
100
AcDbEntity
  8
A
  6
MOYEN
 62
     4
100
AcDbVertex
100
AcDb2dVertex
 10
0.0
 20
20.0
 30
0.0
  0
VERTEX
  5
29E
330
29B
100
AcDbEntity
  8
A
  6
MOYEN
 62
     4
100
AcDbVertex
100
AcDb2dVertex
 10
0.0
 20
297.0
 30
0.0
  0
VERTEX
  5
29F
330
29B
100
AcDbEntity
  8
A
  6
MOYEN
 62
     4
100
AcDbVertex
100
AcDb2dVertex
 10
415.0
 20
297.0
 30
0.0
  0
VERTEX
  5
2A0
330
29B
100
AcDbEntity
  8
A
  6
MOYEN
 62
     4
100
AcDbVertex
100
AcDb2dVertex
 10
415.0
 20
20.0
 30
0.0
  0
VERTEX
  5
2A1
330
29B
100
AcDbEntity
  8
A
  6
MOYEN
 62
     4
100
AcDbVertex
100
AcDb2dVertex
 10
0.0
 20
20.0
 30
0.0
  0
SEQEND
  5
29C
330
29B
100
AcDbEntity
  8
A
  6
MOYEN
  0
POLYLINE
  5
2A2
330
56
100
AcDbEntity
  8
A
  6
MOYEN
 62
     4
100
AcDb2dPolyline
 66
     1
 10
0.0
 20
0.0
 30
0.0
  0
VERTEX
  5
2A4
330
2A2
100
AcDbEntity
  8
A
  6
MOYEN
 62
     4
100
AcDbVertex
100
AcDb2dVertex
 10
0.0
 20
0.0
 30
0.0
  0
VERTEX
  5
2A5
330
2A2
100
AcDbEntity
  8
A
  6
MOYEN
 62
     4
100
AcDbVertex
100
AcDb2dVertex
 10
0.0
 20
297.0
 30
0.0
  0
VERTEX
  5
2A6
330
2A2
100
AcDbEntity
  8
A
  6
MOYEN
 62
     4
100
AcDbVertex
100
AcDb2dVertex
 10
420.0
 20
297.0
 30
0.0
  0
VERTEX
  5
2A7
330
2A2
100
AcDbEntity
  8
A
  6
MOYEN
 62
     4
100
AcDbVertex
100
AcDb2dVertex
 10
420.0
 20
0.0
 30
0.0
  0
VERTEX
  5
2A8
330
2A2
100
AcDbEntity
  8
A
  6
MOYEN
 62
     4
100
AcDbVertex
100
AcDb2dVertex
 10
0.0
 20
0.0
 30
0.0
  0
SEQEND
  5
2A3
330
2A2
100
AcDbEntity
  8
A
  6
MOYEN
  0
ENDBLK
  5
2AA
330
56
100
AcDbEntity
  8
0
100
AcDbBlockEnd
  0
BLOCK
  5
341
330
2CC
100
AcDbEntity
  8
0
100
AcDbBlockBegin
  2
_VARMECA20_VARIATEUR_0_5_0
 70
     2
 71
     0
 10
0.0
 20
0.0
 30
0.0
  3
_VARMECA20_VARIATEUR_0_5_0
  1

  0
ATTDEF
  5
2CD
330
2CC
100
AcDbEntity
  8
A
  6
FIN
 62
     3
100
AcDbText
 10
0.0
 20
-28.49464333398002
 30
0.0
 40
2.989285714285714
  1

 41
0.9659999561309813
  7
ARIAL
 11
0.0
 21
-27.00000047683716
 31
0.0
100
AcDbAttributeDefinition
  3

  2
$ETIQUETTE
 70
     0
 74
     2
  0
ATTDEF
  5
2CE
330
2CC
100
AcDbEntity
  8
A
  6
FIN
 62
     3
100
AcDbText
 10
0.0
 20
-21.32857142857143
 30
0.0
 40
2.657142857142858
  1

 41
0.9659999561309813
  7
ARIAL
 11
0.0
 21
-20.0
 31
0.0
100
AcDbAttributeDefinition
  3

  2
$LOCALISATION
 70
     0
 74
     2
  0
ATTDEF
  5
2CF
330
2CC
100
AcDbEntity
  8
A
  6
FIN
 62
     3
100
AcDbText
 10
0.0
 20
-14.32857214382717
 30
0.0
 40
2.657142857142858
  1

 41
0.9659999561309813
  7
ARIAL
 11
0.0
 21
-13.00000071525574
 31
0.0
100
AcDbAttributeDefinition
  3

  2
$FONCTION
 70
     0
 74
     2
  0
ATTDEF
  5
2D0
330
2CC
100
AcDbEntity
  8
A
  6
FIN
 62
     1
100
AcDbText
 10
10.49999713897705
 20
-39.16250190734863
 30
0.0
 40
2.325
  1

 41
0.9659999561309813
  7
ARIAL
 11
10.49999713897705
 21
-38.00000190734863
 31
0.0
100
AcDbAttributeDefinition
  3

  2
PRODUIT
 70
     0
 74
     2
  0
ATTDEF
  5
2D1
330
2CC
100
AcDbEntity
  8
A
  6
FIN
 62
     1
100
AcDbText
 10
0.0
 20
-47.16250381469727
 30
0.0
 40
2.325
  1

 41
0.9659999561309813
  7
ARIAL
 11
0.0
 21
-46.00000381469727
 31
0.0
100
AcDbAttributeDefinition
  3

  2
SYMBOLE
 70
     0
 74
     2
  0
ATTDEF
  5
2D2
330
2CC
100
AcDbEntity
  8
A
  6
FIN
 62
     1
100
AcDbText
 10
10.50000190734863
 20
-35.16250095367432
 30
0.0
 40
2.325
  1

 41
0.9659999561309813
  7
ARIAL
 11
10.50000190734863
 21
-34.00000095367432
 31
0.0
100
AcDbAttributeDefinition
  3

  2
FABRICANT
 70
     0
 74
     2
  0
ATTDEF
  5
2D3
330
2CC
100
AcDbEntity
  8
A
  6
FIN
 62
     1
100
AcDbText
 10
-0.2500081062316895
 20
-43.16249809265137
 30
0.0
 40
2.325
  1

 41
0.9659999561309813
  7
ARIAL
 11
-0.2500081062316895
 21
-41.99999809265137
 31
0.0
100
AcDbAttributeDefinition
  3

  2
SERIE
 70
     0
 74
     2
  0
ATTDEF
  5
2D4
330
2CC
100
AcDbEntity
  8
A
  6
FIN
 62
     4
100
AcDbText
 10
0.0
 20
-35.16250095367432
 30
0.0
 40
2.325
  1

 41
0.9659999561309813
  7
ARIAL
 11
0.0
 21
-34.00000095367432
 31
0.0
100
AcDbAttributeDefinition
  3

  2
FAB
 70
     0
 74
     2
  0
ATTDEF
  5
2D5
330
2CC
100
AcDbEntity
  8
A
  6
FIN
 62
     4
100
AcDbText
 10
0.0
 20
-39.16250190734863
 30
0.0
 40
2.325
  1

 41
0.9659999561309813
  7
ARIAL
 11
0.0
 21
-38.00000190734863
 31
0.0
100
AcDbAttributeDefinition
  3

  2
TYPE
 70
     0
 74
     2
  0
ATTDEF
  5
2D6
330
2CC
100
AcDbEntity
  8
A
  6
FIN
 62
     1
100
AcDbText
 10
0.0
 20
-4.500000476837158
 30
0.0
 40
1.992857142857143
  1

 41
0.9659999561309813
  7
ARIAL
 72
     4
 11
0.0
 21
-4.500000476837158
 31
0.0
100
AcDbAttributeDefinition
  3

  2
$PL:1
 70
     0
 74
     2
  0
ATTDEF
  5
2D7
330
2CC
100
AcDbEntity
  8
A
  6
FIN
 62
     1
100
AcDbText
 10
10.0
 20
-4.500000476837158
 30
0.0
 40
1.992857142857143
  1

 41
0.9659999561309813
  7
ARIAL
 72
     4
 11
10.0
 21
-4.500000476837158
 31
0.0
100
AcDbAttributeDefinition
  3

  2
$PL:2
 70
     0
 74
     2
  0
ATTDEF
  5
2D8
330
2CC
100
AcDbEntity
  8
A
  6
FIN
 62
     1
100
AcDbText
 10
20.0
 20
-4.500000476837158
 30
0.0
 40
1.992857142857143
  1

 41
0.9659999561309813
  7
ARIAL
 72
     4
 11
20.0
 21
-4.500000476837158
 31
0.0
100
AcDbAttributeDefinition
  3

  2
$PL:3
 70
     0
 74
     2
  0
ATTDEF
  5
2D9
330
2CC
100
AcDbEntity
  8
A
  6
FIN
 62
     1
100
AcDbText
 10
30.00000953674316
 20
-4.500000476837158
 30
0.0
 40
1.992857142857143
  1

 41
0.9659999561309813
  7
ARIAL
 72
     4
 11
30.00000953674316
 21
-4.500000476837158
 31
0.0
100
AcDbAttributeDefinition
  3

  2
$PL:4
 70
     0
 74
     2
  0
ATTDEF
  5
2DA
330
2CC
100
AcDbEntity
  8
A
  6
FIN
 62
     1
100
AcDbText
 10
-11.25000953674316
 20
-40.49642904826573
 30
0.0
 40
1.992857142857143
  1

 41
0.9659999561309813
  7
ARIAL
 11
-11.25000953674316
 21
-39.50000047683716
 31
0.0
100
AcDbAttributeDefinition
  3

  2
$PL:5
 70
     0
 74
     2
  0
ATTDEF
  5
2DB
330
2CC
100
AcDbEntity
  8
A
  6
FIN
 62
     1
100
AcDbText
 10
-11.25
 20
-30.49642904826573
 30
0.0
 40
1.992857142857143
  1

 41
0.9659999561309813
  7
ARIAL
 11
-11.25
 21
-29.50000047683716
 31
0.0
100
AcDbAttributeDefinition
  3

  2
$PL:6
 70
     0
 74
     2
  0
ATTDEF
  5
2DC
330
2CC
100
AcDbEntity
  8
A
  6
FIN
 62
     1
100
AcDbText
 10
0.0
 20
-49.49999809265137
 30
0.0
 40
1.992857142857143
  1

 41
0.9659999561309813
  7
ARIAL
 72
     4
 11
0.0
 21
-49.49999809265137
 31
0.0
100
AcDbAttributeDefinition
  3

  2
$PL:7
 70
     0
 74
     2
  0
ATTDEF
  5
2DD
330
2CC
100
AcDbEntity
  8
A
  6
FIN
 62
     1
100
AcDbText
 10
10.0
 20
-49.49999809265137
 30
0.0
 40
1.992857142857143
  1

 41
0.9659999561309813
  7
ARIAL
 72
     4
 11
10.0
 21
-49.49999809265137
 31
0.0
100
AcDbAttributeDefinition
  3

  2
$PL:8
 70
     0
 74
     2
  0
ATTDEF
  5
2DE
330
2CC
100
AcDbEntity
  8
A
  6
FIN
 62
     1
100
AcDbText
 10
20.0
 20
-49.49999809265137
 30
0.0
 40
1.992857142857143
  1

 41
0.9659999561309813
  7
ARIAL
 72
     4
 11
20.0
 21
-49.49999809265137
 31
0.0
100
AcDbAttributeDefinition
  3

  2
$PL:9
 70
     0
 74
     2
  0
ATTDEF
  5
2DF
330
2CC
100
AcDbEntity
  8
A
  6
FIN
 62
     1
100
AcDbText
 10
30.0
 20
-49.49999809265137
 30
0.0
 40
1.992857142857143
  1

 41
0.9659999561309813
  7
ARIAL
 72
     4
 11
30.0
 21
-49.49999809265137
 31
0.0
100
AcDbAttributeDefinition
  3

  2
$PL:10
 70
     0
 74
     2
  0
ATTDEF
  5
2E0
330
2CC
100
AcDbEntity
  8
A
  6
FIN
 62
     1
100
AcDbText
 10
160.0
 20
-49.49999809265137
 30
0.0
 40
1.992857142857143
  1

 41
0.9659999561309813
  7
ARIAL
 72
     4
 11
160.0
 21
-49.49999809265137
 31
0.0
100
AcDbAttributeDefinition
  3

  2
$PL:11
 70
     0
 74
     2
  0
ATTDEF
  5
2E1
330
2CC
100
AcDbEntity
  8
A
  6
FIN
 62
     1
100
AcDbText
 10
175.0
 20
-49.49999809265137
 30
0.0
 40
1.992857142857143
  1

 41
0.9659999561309813
  7
ARIAL
 72
     4
 11
175.0
 21
-49.49999809265137
 31
0.0
100
AcDbAttributeDefinition
  3

  2
$PL:12
 70
     0
 74
     2
  0
ATTDEF
  5
2E2
330
2CC
100
AcDbEntity
  8
A
  6
FIN
 62
     1
100
AcDbText
 10
190.2287483215332
 20
-49.49999809265137
 30
0.0
 40
1.992857142857143
  1

 41
0.9659999561309813
  7
ARIAL
 72
     4
 11
190.2287483215332
 21
-49.49999809265137
 31
0.0
100
AcDbAttributeDefinition
  3

  2
$PL:13
 70
     0
 74
     2
  0
ATTDEF
  5
2E3
330
2CC
100
AcDbEntity
  8
A
  6
FIN
 62
     1
100
AcDbText
 10
205.0
 20
-49.49999809265137
 30
0.0
 40
1.992857142857143
  1

 41
0.9659999561309813
  7
ARIAL
 72
     4
 11
205.0
 21
-49.49999809265137
 31
0.0
100
AcDbAttributeDefinition
  3

  2
$PL:14
 70
     0
 74
     2
  0
ATTDEF
  5
2E4
330
2CC
100
AcDbEntity
  8
A
  6
FIN
 62
     1
100
AcDbText
 10
130.0
 20
-4.499998092651367
 30
0.0
 40
1.992857142857143
  1

 41
0.9659999561309813
  7
ARIAL
 72
     4
 11
130.0
 21
-4.499998092651367
 31
0.0
100
AcDbAttributeDefinition
  3

  2
$PL:15
 70
     0
 74
     2
  0
ATTDEF
  5
2E5
330
2CC
100
AcDbEntity
  8
A
  6
FIN
 62
     1
100
AcDbText
 10
145.0
 20
-4.499998092651367
 30
0.0
 40
1.992857142857143
  1

 41
0.9659999561309813
  7
ARIAL
 72
     4
 11
145.0
 21
-4.499998092651367
 31
0.0
100
AcDbAttributeDefinition
  3

  2
$PL:16
 70
     0
 74
     2
  0
ATTDEF
  5
2E6
330
2CC
100
AcDbEntity
  8
A
  6
FIN
 62
     1
100
AcDbText
 10
160.0
 20
-4.499998092651367
 30
0.0
 40
1.992857142857143
  1

 41
0.9659999561309813
  7
ARIAL
 72
     4
 11
160.0
 21
-4.499998092651367
 31
0.0
100
AcDbAttributeDefinition
  3

  2
$PL:17
 70
     0
 74
     2
  0
ATTDEF
  5
2E7
330
2CC
100
AcDbEntity
  8
A
  6
FIN
 62
     1
100
AcDbText
 10
175.0
 20
-4.499998092651367
 30
0.0
 40
1.992857142857143
  1

 41
0.9659999561309813
  7
ARIAL
 72
     4
 11
175.0
 21
-4.499998092651367
 31
0.0
100
AcDbAttributeDefinition
  3

  2
$PL:18
 70
     0
 74
     2
  0
ATTDEF
  5
2E8
330
2CC
100
AcDbEntity
  8
A
  6
FIN
 62
     1
100
AcDbText
 10
190.0
 20
-4.499998092651367
 30
0.0
 40
1.992857142857143
  1

 41
0.9659999561309813
  7
ARIAL
 72
     4
 11
190.0
 21
-4.499998092651367
 31
0.0
100
AcDbAttributeDefinition
  3

  2
$PL:19
 70
     0
 74
     2
  0
ATTDEF
  5
2E9
330
2CC
100
AcDbEntity
  8
A
  6
FIN
 62
     1
100
AcDbText
 10
205.0
 20
-4.499998092651367
 30
0.0
 40
1.992857142857143
  1

 41
0.9659999561309813
  7
ARIAL
 72
     4
 11
205.0
 21
-4.499998092651367
 31
0.0
100
AcDbAttributeDefinition
  3

  2
$PL:20
 70
     0
 74
     2
  0
ATTDEF
  5
2EA
330
2CC
100
AcDbEntity
  8
A
  6
FIN
 62
     1
100
AcDbText
 10
45.0
 20
-4.499998092651367
 30
0.0
 40
1.992857142857143
  1

 41
0.8452499616146088
  7
ARIAL
 72
     4
 11
45.0
 21
-4.499998092651367
 31
0.0
100
AcDbAttributeDefinition
  3

  2
$PL:21
 70
     0
 74
     2
  0
ATTDEF
  5
2EB
330
2CC
100
AcDbEntity
  8
A
  6
FIN
 62
     1
100
AcDbText
 10
55.0
 20
-4.499998092651367
 30
0.0
 40
1.992857142857143
  1

 41
0.8452499616146088
  7
ARIAL
 72
     4
 11
55.0
 21
-4.499998092651367
 31
0.0
100
AcDbAttributeDefinition
  3

  2
$PL:22
 70
     0
 74
     2
  0
ATTDEF
  5
2EC
330
2CC
100
AcDbEntity
  8
A
  6
FIN
 62
     1
100
AcDbText
 10
50.0
 20
25.0
 30
0.0
 40
1.992857142857143
  1

 41
0.9659999561309813
  7
ARIAL
 72
     4
 11
50.0
 21
25.0
 31
0.0
100
AcDbAttributeDefinition
  3

  2
$POS_REFCRO_1
 70
     0
 74
     2
  0
ATTDEF
  5
2ED
330
2CC
100
AcDbEntity
  8
A
  6
FIN
 62
     1
100
AcDbText
 10
205.0
 20
-35.0
 30
0.0
 40
1.992857142857143
  1

 41
0.9659999561309813
  7
ARIAL
 72
     4
 11
205.0
 21
-35.0
 31
0.0
100
AcDbAttributeDefinition
  3

  2
$PL:23
 70
     0
 74
     2
  0
CIRCLE
  5
2EE
330
2CC
100
AcDbEntity
  8
A
  6
SYMBOL_C
 62
     4
100
AcDbCircle
 10
20.0
 20
-1.000000238418579
 30
0.0
 40
1.000003814697266
  0
CIRCLE
  5
2EF
330
2CC
100
AcDbEntity
  8
A
  6
SYMBOL_C
 62
     4
100
AcDbCircle
 10
30.0
 20
-1.000000238418579
 30
0.0
 40
1.000003814697266
  0
LINE
  5
2F0
330
2CC
100
AcDbEntity
  8
A
  6
MOYEN
 62
     4
100
AcDbLine
 10
30.0
 20
-7.000001668930054
 30
0.0
 11
30.0
 21
-9.999999403953552
 31
0.0
  0
LINE
  5
2F1
330
2CC
100
AcDbEntity
  8
A
  6
MOYEN
 62
     4
100
AcDbLine
 10
27.5
 20
-9.999999403953552
 30
0.0
 11
32.5
 21
-9.999999403953552
 31
0.0
  0
LINE
  5
2F2
330
2CC
100
AcDbEntity
  8
A
  6
MOYEN
 62
     4
100
AcDbLine
 10
28.50000381469727
 20
-10.99999904632568
 30
0.0
 11
31.49999618530273
 21
-10.99999904632568
 31
0.0
  0
LINE
  5
2F3
330
2CC
100
AcDbEntity
  8
A
  6
MOYEN
 62
     4
100
AcDbLine
 10
29.4999885559082
 20
-11.99999809265137
 30
0.0
 11
30.5000114440918
 21
-11.99999809265137
 31
0.0
  0
CIRCLE
  5
2F4
330
2CC
100
AcDbEntity
  8
A
  6
SYMBOL_C
 62
     4
100
AcDbCircle
 10
0.0
 20
-1.000000238418579
 30
0.0
 40
1.000003814697266
  0
CIRCLE
  5
2F5
330
2CC
100
AcDbEntity
  8
A
  6
SYMBOL_C
 62
     4
100
AcDbCircle
 10
10.0
 20
-1.000000238418579
 30
0.0
 40
1.000003814697266
  0
CIRCLE
  5
2F6
330
2CC
100
AcDbEntity
  8
A
  6
SYMBOL_C
 62
     4
100
AcDbCircle
 10
-14.00000095367432
 20
-39.99999761581421
 30
0.0
 40
1.000003814697266
  0
CIRCLE
  5
2F7
330
2CC
100
AcDbEntity
  8
A
  6
SYMBOL_C
 62
     4
100
AcDbCircle
 10
-13.99999856948853
 20
-30.0
 30
0.0
 40
1.000003814697266
  0
CIRCLE
  5
2F8
330
2CC
100
AcDbEntity
  8
A
  6
SYMBOL_C
 62
     4
100
AcDbCircle
 10
160.0
 20
-53.99999618530273
 30
0.0
 40
1.000003814697266
  0
CIRCLE
  5
2F9
330
2CC
100
AcDbEntity
  8
A
  6
SYMBOL_C
 62
     4
100
AcDbCircle
 10
175.0
 20
-53.99999618530273
 30
0.0
 40
1.000003814697266
  0
CIRCLE
  5
2FA
330
2CC
100
AcDbEntity
  8
A
  6
SYMBOL_C
 62
     4
100
AcDbCircle
 10
205.0
 20
-53.99999618530273
 30
0.0
 40
1.000003814697266
  0
CIRCLE
  5
2FB
330
2CC
100
AcDbEntity
  8
A
  6
SYMBOL_C
 62
     4
100
AcDbCircle
 10
130.0
 20
-1.499998569488525
 30
0.0
 40
1.000003814697266
  0
CIRCLE
  5
2FC
330
2CC
100
AcDbEntity
  8
A
  6
SYMBOL_C
 62
     4
100
AcDbCircle
 10
145.0
 20
-1.499998569488525
 30
0.0
 40
1.000003814697266
  0
CIRCLE
  5
2FD
330
2CC
100
AcDbEntity
  8
A
  6
SYMBOL_C
 62
     4
100
AcDbCircle
 10
160.0
 20
-1.499998569488525
 30
0.0
 40
1.000003814697266
  0
CIRCLE
  5
2FE
330
2CC
100
AcDbEntity
  8
A
  6
SYMBOL_C
 62
     4
100
AcDbCircle
 10
190.0
 20
-1.499998569488525
 30
0.0
 40
1.000003814697266
  0
CIRCLE
  5
2FF
330
2CC
100
AcDbEntity
  8
A
  6
SYMBOL_C
 62
     4
100
AcDbCircle
 10
205.0
 20
-1.499998569488525
 30
0.0
 40
1.000003814697266
  0
CIRCLE
  5
300
330
2CC
100
AcDbEntity
  8
A
  6
SYMBOL_C
 62
     4
100
AcDbCircle
 10
45.0
 20
-1.25
 30
0.0
 40
1.000003814697266
  0
CIRCLE
  5
301
330
2CC
100
AcDbEntity
  8
A
  6
SYMBOL_C
 62
     4
100
AcDbCircle
 10
55.0
 20
-1.25
 30
0.0
 40
1.000003814697266
  0
LINE
  5
302
330
2CC
100
AcDbEntity
  8
A
  6
MOYEN
 62
     4
100
AcDbLine
 10
30.0
 20
-45.0
 30
0.0
 11
30.0
 21
-47.99999713897705
 31
0.0
  0
LINE
  5
303
330
2CC
100
AcDbEntity
  8
A
  6
MOYEN
 62
     4
100
AcDbLine
 10
27.5
 20
-47.99999713897705
 30
0.0
 11
32.5
 21
-47.99999713897705
 31
0.0
  0
LINE
  5
304
330
2CC
100
AcDbEntity
  8
A
  6
MOYEN
 62
     4
100
AcDbLine
 10
28.50000381469727
 20
-48.99999618530273
 30
0.0
 11
31.49999618530273
 21
-48.99999618530273
 31
0.0
  0
LINE
  5
305
330
2CC
100
AcDbEntity
  8
A
  6
MOYEN
 62
     4
100
AcDbLine
 10
29.4999885559082
 20
-49.99999523162842
 30
0.0
 11
30.5000114440918
 21
-49.99999523162842
 31
0.0
  0
POLYLINE
  5
306
330
2CC
100
AcDbEntity
  8
A
  6
FIN
 62
     7
100
AcDb2dPolyline
 66
     1
 10
0.0
 20
0.0
 30
0.0
  0
VERTEX
  5
308
330
306
100
AcDbEntity
  8
A
  6
FIN
 62
     7
100
AcDbVertex
100
AcDb2dVertex
 10
-15.0
 20
0.0
 30
0.0
  0
VERTEX
  5
309
330
306
100
AcDbEntity
  8
A
  6
FIN
 62
     7
100
AcDbVertex
100
AcDb2dVertex
 10
215.0
 20
0.0
 30
0.0
  0
VERTEX
  5
30A
330
306
100
AcDbEntity
  8
A
  6
FIN
 62
     7
100
AcDbVertex
100
AcDb2dVertex
 10
215.0
 20
-55.0
 30
0.0
  0
VERTEX
  5
30B
330
306
100
AcDbEntity
  8
A
  6
FIN
 62
     7
100
AcDbVertex
100
AcDb2dVertex
 10
-15.0
 20
-55.0
 30
0.0
  0
VERTEX
  5
30C
330
306
100
AcDbEntity
  8
A
  6
FIN
 62
     7
100
AcDbVertex
100
AcDb2dVertex
 10
-15.0
 20
0.0
 30
0.0
  0
SEQEND
  5
307
330
306
100
AcDbEntity
  8
A
  6
FIN
  0
CIRCLE
  5
30D
330
2CC
100
AcDbEntity
  8
A
  6
SYMBOL_C
 62
     4
100
AcDbCircle
 10
175.0
 20
-1.499998569488525
 30
0.0
 40
1.000003814697266
  0
LINE
  5
30E
330
2CC
100
AcDbEntity
  8
A
  6
MOYEN
 62
     4
100
AcDbLine
 10
-1.25
 20
-53.75
 30
0.0
 11
0.0
 21
-52.5
 31
0.0
  0
LINE
  5
30F
330
2CC
100
AcDbEntity
  8
A
  6
MOYEN
 62
     4
100
AcDbLine
 10
0.0
 20
-52.5
 30
0.0
 11
1.25
 21
-53.75
 31
0.0
  0
LINE
  5
310
330
2CC
100
AcDbEntity
  8
A
  6
MOYEN
 62
     4
100
AcDbLine
 10
-1.25
 20
-52.5
 30
0.0
 11
0.0
 21
-51.25
 31
0.0
  0
LINE
  5
311
330
2CC
100
AcDbEntity
  8
A
  6
MOYEN
 62
     4
100
AcDbLine
 10
1.25
 20
-52.5
 30
0.0
 11
0.0
 21
-51.25
 31
0.0
  0
LINE
  5
312
330
2CC
100
AcDbEntity
  8
A
  6
MOYEN
 62
     4
100
AcDbLine
 10
8.745312690734863
 20
-53.73593807220459
 30
0.0
 11
9.995312690734863
 21
-52.48593807220459
 31
0.0
  0
LINE
  5
313
330
2CC
100
AcDbEntity
  8
A
  6
MOYEN
 62
     4
100
AcDbLine
 10
9.995312690734863
 20
-52.48593807220459
 30
0.0
 11
11.24531269073486
 21
-53.73593807220459
 31
0.0
  0
LINE
  5
314
330
2CC
100
AcDbEntity
  8
A
  6
MOYEN
 62
     4
100
AcDbLine
 10
8.745312690734863
 20
-52.48593807220459
 30
0.0
 11
9.995312690734863
 21
-51.23593807220459
 31
0.0
  0
LINE
  5
315
330
2CC
100
AcDbEntity
  8
A
  6
MOYEN
 62
     4
100
AcDbLine
 10
11.24531269073486
 20
-52.48593807220459
 30
0.0
 11
9.995312690734863
 21
-51.23593807220459
 31
0.0
  0
LINE
  5
316
330
2CC
100
AcDbEntity
  8
A
  6
MOYEN
 62
     4
100
AcDbLine
 10
18.74531269073486
 20
-53.73593807220459
 30
0.0
 11
19.99531269073486
 21
-52.48593807220459
 31
0.0
  0
LINE
  5
317
330
2CC
100
AcDbEntity
  8
A
  6
MOYEN
 62
     4
100
AcDbLine
 10
19.99531269073486
 20
-52.48593807220459
 30
0.0
 11
21.24531269073486
 21
-53.73593807220459
 31
0.0
  0
LINE
  5
318
330
2CC
100
AcDbEntity
  8
A
  6
MOYEN
 62
     4
100
AcDbLine
 10
18.74531269073486
 20
-52.48593807220459
 30
0.0
 11
19.99531269073486
 21
-51.23593807220459
 31
0.0
  0
LINE
  5
319
330
2CC
100
AcDbEntity
  8
A
  6
MOYEN
 62
     4
100
AcDbLine
 10
21.24531269073486
 20
-52.48593807220459
 30
0.0
 11
19.99531269073486
 21
-51.23593807220459
 31
0.0
  0
LINE
  5
31A
330
2CC
100
AcDbEntity
  8
A
  6
MOYEN
 62
     4
100
AcDbLine
 10
28.74531269073486
 20
-53.73593807220459
 30
0.0
 11
29.99531269073486
 21
-52.48593807220459
 31
0.0
  0
LINE
  5
31B
330
2CC
100
AcDbEntity
  8
A
  6
MOYEN
 62
     4
100
AcDbLine
 10
29.99531269073486
 20
-52.48593807220459
 30
0.0
 11
31.24531269073486
 21
-53.73593807220459
 31
0.0
  0
LINE
  5
31C
330
2CC
100
AcDbEntity
  8
A
  6
MOYEN
 62
     4
100
AcDbLine
 10
28.74531269073486
 20
-52.48593807220459
 30
0.0
 11
29.99531269073486
 21
-51.23593807220459
 31
0.0
  0
LINE
  5
31D
330
2CC
100
AcDbEntity
  8
A
  6
MOYEN
 62
     4
100
AcDbLine
 10
31.24531269073486
 20
-52.48593807220459
 30
0.0
 11
29.99531269073486
 21
-51.23593807220459
 31
0.0
  0
TEXT
  5
31E
330
2CC
100
AcDbEntity
  8
A
  6
FIN
 62
     1
100
AcDbText
 10
204.2992540950794
 20
-11.60378200457437
 30
0.0
 40
2.158928571428572
  1
1
 41
0.9659999561309813
  7
ARIAL
 72
     4
 11
204.9999904632568
 21
-10.51999986171722
 31
0.0
100
AcDbText
  0
TEXT
  5
31F
330
2CC
100
AcDbEntity
  8
A
  6
FIN
 62
     1
100
AcDbText
 10
43.49007996857009
 20
-11.60378200457437
 30
0.0
 40
2.158928571428572
  1
11
 41
0.9659999561309813
  7
ARIAL
 72
     4
 11
45.0
 21
-10.51999986171722
 31
0.0
100
AcDbText
  0
TEXT
  5
320
330
2CC
100
AcDbEntity
  8
A
  6
FIN
 62
     1
100
AcDbText
 10
53.30029720218872
 20
-11.60378200457437
 30
0.0
 40
2.158928571428572
  1
12
 41
0.9659999561309813
  7
ARIAL
 72
     4
 11
55.0
 21
-10.51999986171722
 31
0.0
100
AcDbText
  0
POLYLINE
  5
321
330
2CC
100
AcDbEntity
  8
A
  6
FIN
 62
     7
100
AcDb2dPolyline
 66
     1
 10
0.0
 20
0.0
 30
0.0
  0
VERTEX
  5
323
330
321
100
AcDbEntity
  8
A
  6
FIN
 62
     7
100
AcDbVertex
100
AcDb2dVertex
 10
202.5046920776367
 20
-33.01718950271606
 30
0.0
  0
VERTEX
  5
324
330
321
100
AcDbEntity
  8
A
  6
FIN
 62
     7
100
AcDbVertex
100
AcDb2dVertex
 10
202.5046920776367
 20
-28.5171914100647
 30
0.0
  0
VERTEX
  5
325
330
321
100
AcDbEntity
  8
A
  6
FIN
 62
     7
100
AcDbVertex
100
AcDb2dVertex
 10
204.0047073364258
 20
-28.5171914100647
 30
0.0
  0
VERTEX
  5
326
330
321
100
AcDbEntity
  8
A
  6
FIN
 62
     7
100
AcDbVertex
100
AcDb2dVertex
 10
204.0047073364258
 20
-27.01719522476196
 30
0.0
  0
VERTEX
  5
327
330
321
100
AcDbEntity
  8
A
  6
FIN
 62
     7
100
AcDbVertex
100
AcDb2dVertex
 10
206.0046768188477
 20
-27.01719522476196
 30
0.0
  0
VERTEX
  5
328
330
321
100
AcDbEntity
  8
A
  6
FIN
 62
     7
100
AcDbVertex
100
AcDb2dVertex
 10
206.0046768188477
 20
-28.5171914100647
 30
0.0
  0
VERTEX
  5
329
330
321
100
AcDbEntity
  8
A
  6
FIN
 62
     7
100
AcDbVertex
100
AcDb2dVertex
 10
207.5046920776367
 20
-28.5171914100647
 30
0.0
  0
VERTEX
  5
32A
330
321
100
AcDbEntity
  8
A
  6
FIN
 62
     7
100
AcDbVertex
100
AcDb2dVertex
 10
207.5046920776367
 20
-33.01718950271606
 30
0.0
  0
SEQEND
  5
322
330
321
100
AcDbEntity
  8
A
  6
FIN
  0
POLYLINE
  5
32B
330
2CC
100
AcDbEntity
  8
A
  6
FIN
 62
     7
100
AcDb2dPolyline
 66
     1
 10
0.0
 20
0.0
 30
0.0
  0
VERTEX
  5
32D
330
32B
100
AcDbEntity
  8
A
  6
FIN
 62
     7
100
AcDbVertex
100
AcDb2dVertex
 10
202.0046997070313
 20
-33.5171914100647
 30
0.0
  0
VERTEX
  5
32E
330
32B
100
AcDbEntity
  8
A
  6
FIN
 62
     7
100
AcDbVertex
100
AcDb2dVertex
 10
202.0046997070313
 20
-28.01718950271606
 30
0.0
  0
VERTEX
  5
32F
330
32B
100
AcDbEntity
  8
A
  6
FIN
 62
     7
100
AcDbVertex
100
AcDb2dVertex
 10
203.5046768188477
 20
-28.01718950271606
 30
0.0
  0
VERTEX
  5
330
330
32B
100
AcDbEntity
  8
A
  6
FIN
 62
     7
100
AcDbVertex
100
AcDb2dVertex
 10
203.5046768188477
 20
-26.51719331741333
 30
0.0
  0
VERTEX
  5
331
330
32B
100
AcDbEntity
  8
A
  6
FIN
 62
     7
100
AcDbVertex
100
AcDb2dVertex
 10
206.5047073364258
 20
-26.51719331741333
 30
0.0
  0
VERTEX
  5
332
330
32B
100
AcDbEntity
  8
A
  6
FIN
 62
     7
100
AcDbVertex
100
AcDb2dVertex
 10
206.5047073364258
 20
-28.01718950271606
 30
0.0
  0
VERTEX
  5
333
330
32B
100
AcDbEntity
  8
A
  6
FIN
 62
     7
100
AcDbVertex
100
AcDb2dVertex
 10
208.0046844482422
 20
-28.01718950271606
 30
0.0
  0
VERTEX
  5
334
330
32B
100
AcDbEntity
  8
A
  6
FIN
 62
     7
100
AcDbVertex
100
AcDb2dVertex
 10
208.0046844482422
 20
-33.5171914100647
 30
0.0
  0
SEQEND
  5
32C
330
32B
100
AcDbEntity
  8
A
  6
FIN
  0
LINE
  5
335
330
2CC
100
AcDbEntity
  8
A
  6
FIN
 62
     7
100
AcDbLine
 10
202.4937438964844
 20
-33.04874897003174
 30
0.0
 11
207.4674987792969
 21
-33.04874897003174
 31
0.0
  0
LINE
  5
336
330
2CC
100
AcDbEntity
  8
A
  6
FIN
 62
     7
100
AcDbLine
 10
202.033748626709
 20
-33.5087513923645
 30
0.0
 11
208.0425071716309
 21
-33.50874900817871
 31
0.0
  0
TEXT
  5
337
330
2CC
100
AcDbEntity
  8
A
  6
FIN
 62
     1
100
AcDbText
 10
204.2252179609416
 20
-46.60378260062082
 30
0.0
 40
2.158928571428572
  1
2
 41
0.9659999561309813
  7
ARIAL
 72
     4
 11
204.9999904632568
 21
-45.52000045776367
 31
0.0
100
AcDbText
  0
TEXT
  5
338
330
2CC
100
AcDbEntity
  8
A
  6
FIN
 62
     1
100
AcDbText
 10
189.1949778498149
 20
-11.58543111171722
 30
0.0
 40
2.158928571428572
  1
3
 41
0.9659999561309813
  7
ARIAL
 72
     4
 11
189.9999904632568
 21
-10.51999986171722
 31
0.0
100
AcDbText
  0
TEXT
  5
339
330
2CC
100
AcDbEntity
  8
A
  6
FIN
 62
     1
100
AcDbText
 10
159.2419164652987
 20
-46.59838527919224
 30
0.0
 40
2.158928571428572
  1
4
 41
0.9659999561309813
  7
ARIAL
 72
     4
 11
160.0000047683716
 21
-45.52000045776367
 31
0.0
100
AcDbText
  0
TEXT
  5
33A
330
2CC
100
AcDbEntity
  8
A
  6
FIN
 62
     1
100
AcDbText
 10
189.1887212750991
 20
-46.56600135062082
 30
0.0
 40
2.158928571428572
  1
5
 41
0.9659999561309813
  7
ARIAL
 72
     4
 11
189.9999904632568
 21
-45.52000045776367
 31
0.0
100
AcDbText
  0
CIRCLE
  5
33B
330
2CC
100
AcDbEntity
  8
A
  6
SYMBOL_C
 62
     4
100
AcDbCircle
 10
190.0
 20
-53.99999618530273
 30
0.0
 40
1.000003814697266
  0
TEXT
  5
33C
330
2CC
100
AcDbEntity
  8
A
  6
FIN
 62
     1
100
AcDbText
 10
174.2022771869835
 20
-46.58543170776368
 30
0.0
 40
2.158928571428572
  1
6
 41
0.9659999561309813
  7
ARIAL
 72
     4
 11
174.9999904632568
 21
-45.52000045776367
 31
0.0
100
AcDbText
  0
TEXT
  5
33D
330
2CC
100
AcDbEntity
  8
A
  6
FIN
 62
     1
100
AcDbText
 10
159.1887355802138
 20
-11.58543111171722
 30
0.0
 40
2.158928571428572
  1
7
 41
0.9659999561309813
  7
ARIAL
 72
     4
 11
160.0000047683716
 21
-10.51999986171722
 31
0.0
100
AcDbText
  0
TEXT
  5
33E
330
2CC
100
AcDbEntity
  8
A
  6
FIN
 62
     1
100
AcDbText
 10
174.1949778498149
 20
-11.58543111171722
 30
0.0
 40
2.158928571428572
  1
8
 41
0.9659999561309813
  7
ARIAL
 72
     4
 11
174.9999904632568
 21
-10.51999986171722
 31
0.0
100
AcDbText
  0
TEXT
  5
33F
330
2CC
100
AcDbEntity
  8
A
  6
FIN
 62
     1
100
AcDbText
 10
144.193949392477
 20
-11.58543111171722
 30
0.0
 40
2.158928571428572
  1
9
 41
0.9659999561309813
  7
ARIAL
 72
     4
 11
145.0000047683716
 21
-10.51999986171722
 31
0.0
100
AcDbText
  0
TEXT
  5
340
330
2CC
100
AcDbEntity
  8
A
  6
FIN
 62
     1
100
AcDbText
 10
128.2930026333918
 20
-11.58543111171722
 30
0.0
 40
2.158928571428572
  1
10
 41
0.9659999561309813
  7
ARIAL
 72
     4
 11
130.0000047683716
 21
-10.51999986171722
 31
0.0
100
AcDbText
  0
ENDBLK
  5
342
330
2CC
100
AcDbEntity
  8
0
100
AcDbBlockEnd
  0
ENDSEC
  0
SECTION
  2
ENTITIES
  0
INSERT
  5
2AB
330
1F
100
AcDbEntity
  8
A
  6
FIN
 62
     0
100
AcDbBlockReference
  2
1
 10
0.0
 20
0.0
 30
0.0
  0
TEXT
  5
2AC
330
1F
100
AcDbEntity
  8
B
  6
FIN
 62
     1
100
AcDbText
 10
195.0
 20
2.5
 30
0.0
 40
2.657142857142858
  1
Document n° :
 41
0.9659999561309813
  7
ARIAL
100
AcDbText
  0
TEXT
  5
2AE
330
1F
100
AcDbEntity
  8
B
  6
FIN
 62
     1
100
AcDbText
 10
403.4178256353841
 20
16.5235718863351
 30
0.0
 40
1.992857142857143
  1
FOLIO
 41
0.9659999561309813
  7
ARIAL
 72
     4
 11
407.5
 21
17.52000045776367
 31
0.0
100
AcDbText
  0
TEXT
  5
2B0
330
1F
100
AcDbEntity
  8
A
  6
FIN
 62
     3
100
AcDbText
 10
222.5
 20
2.25
 30
0.0
 40
2.989285714285714
  1
TH 
 41
1.207499945163727
  7
ARIAL_BOLD
100
AcDbText
  0
TEXT
  5
2B1
330
1F
100
AcDbEntity
  8
A
  6
FIN
 62
     2
100
AcDbText
 10
222.4782507051183
 20
12.53928647722517
 30
0.0
 40
3.321428571428572
  1
NUMERO
 41
0.9659999561309813
  7
ARIAL
 72
     4
 11
232.5
 21
14.20000076293945
 31
0.0
100
AcDbText
  0
TEXT
  5
2B2
330
1F
100
AcDbEntity
  8
A
  6
FIN
 62
     2
100
AcDbText
 10
323.9017990040033
 20
13.53928647722517
 30
0.0
 40
3.321428571428572
  1
TYPE VAR
 41
0.9659999561309813
  7
ARIAL
 72
     4
 11
335.0
 21
15.20000076293945
 31
0.0
100
AcDbText
  0
TEXT
  5
2B3
330
1F
100
AcDbEntity
  8
A
  6
FIN
 62
     7
100
AcDbText
 10
312.7471436693602
 20
7.531428228105817
 30
0.0
 40
2.657142857142858
  1
PUISSANCE VARMECA 20
 41
0.9659999561309813
  7
ARIAL
 72
     4
 11
335.0000152587891
 21
8.859999656677246
 31
0.0
100
AcDbText
  0
TEXT
  5
2B4
330
1F
100
AcDbEntity
  8
A
  6
FIN
 62
     4
100
AcDbText
 10
404.5675915581697
 20
10.07304996185303
 30
0.0
 40
3.985714285714286
  1
01
 41
1.086749950647354
  7
ARIAL
 72
     4
 11
407.5
 21
12.03999996185303
 31
0.0
100
AcDbText
  0
TEXT
  5
2B5
330
1F
100
AcDbEntity
  8
B
  6
FIN
 62
     1
100
AcDbText
 10
72.0
 20
17.5
 30
0.0
 40
1.328571428571429
  1
VERIFIE :
 41
0.9659999561309813
  7
ARIAL
100
AcDbText
  0
TEXT
  5
2B6
330
1F
100
AcDbEntity
  8
B
  6
FIN
 62
     1
100
AcDbText
 10
72.0
 20
11.0
 30
0.0
 40
1.328571428571429
  1
APPROUVE :
 41
0.9659999561309813
  7
ARIAL
100
AcDbText
  0
TEXT
  5
2B7
330
1F
100
AcDbEntity
  8
B
  6
FIN
 62
     1
100
AcDbText
 10
72.0
 20
4.25
 30
0.0
 40
1.328571428571429
  1
DATE DE CREATION :
 41
0.9659999561309813
  7
ARIAL
100
AcDbText
  0
TEXT
  5
2B8
330
1F
100
AcDbEntity
  8
B
  6
FIN
 62
     1
100
AcDbText
 10
110.9288239394715
 20
1.265714114052909
 30
0.0
 40
1.328571428571429
  1
INDICE
 41
0.9659999561309813
  7
ARIAL
 72
     4
 11
114.0
 21
1.929999828338623
 31
0.0
100
AcDbText
  0
TEXT
  5
2B9
330
1F
100
AcDbEntity
  8
B
  6
FIN
 62
     1
100
AcDbText
 10
122.5897749094557
 20
1.265714114052909
 30
0.0
 40
1.328571428571429
  1
DATE
 41
0.9659999561309813
  7
ARIAL
 72
     4
 11
125.0
 21
1.929999828338623
 31
0.0
100
AcDbText
  0
TEXT
  5
2BA
330
1F
100
AcDbEntity
  8
B
  6
FIN
 62
     1
100
AcDbText
 10
149.4873946251522
 20
1.265714114052909
 30
0.0
 40
1.328571428571429
  1
MODIFICATION
 41
0.9659999561309813
  7
ARIAL
 72
     4
 11
156.0000076293945
 21
1.929999828338623
 31
0.0
100
AcDbText
  0
TEXT
  5
2BB
330
1F
100
AcDbEntity
  8
B
  6
FIN
 62
     1
100
AcDbText
 10
182.9176912239589
 20
1.265714114052909
 30
0.0
 40
1.328571428571429
  1
DES.
 41
0.9659999561309813
  7
ARIAL
 72
     4
 11
185.0000076293945
 21
1.929999828338623
 31
0.0
100
AcDbText
  0
TEXT
  5
2BC
330
1F
100
AcDbEntity
  8
A
  6
FIN
 62
     7
100
AcDbText
 10
113.5016174089864
 20
5.269642761775425
 30
0.0
 40
1.660714285714286
  1
A
 41
0.9659999561309813
  7
ARIAL
 72
     4
 11
114.25
 21
6.099999904632568
 31
0.0
100
AcDbText
  0
TEXT
  5
2BD
330
1F
100
AcDbEntity
  8
A
  6
FIN
 62
     7
100
AcDbText
 10
119.6688145034587
 20
5.270473118918282
 30
0.0
 40
1.660714285714286
  1
28/01/2010
 41
0.9659999561309813
  7
ARIAL
 72
     4
 11
125.25
 21
6.099999904632568
 31
0.0
100
AcDbText
  0
TEXT
  5
2BE
330
1F
100
AcDbEntity
  8
B
  6
FIN
 62
     1
100
AcDbText
 10
396.5
 20
0.9500000476837158
 30
0.0
 40
1.727142857142857
  1
Logiciel SEE
 41
0.9659999561309813
  7
ARIAL
100
AcDbText
  0
TEXT
  5
2BF
330
1F
100
AcDbEntity
  8
A
  6
FIN
 62
     4
100
AcDbText
 10
414.25
 20
0.9500000476837158
 30
0.0
 40
1.727142857142857
  1
3.60
 41
0.9659999561309813
  7
ARIAL
100
AcDbText
  0
TEXT
  5
2C0
330
1F
100
AcDbEntity
  8
B
  6
FIN
 62
     1
100
AcDbText
 10
411.25
 20
0.9500000476837158
 30
0.0
 40
1.727142857142857
  1
v.
 41
0.9659999561309813
  7
ARIAL
100
AcDbText
  0
TEXT
  5
2C1
330
1F
100
AcDbEntity
  8
A
  6
FIN
 62
     4
100
AcDbText
 10
400.0
 20
5.5
 30
0.0
 40
2.657142857142858
  1
01
 41
0.9659999561309813
  7
ARIAL
100
AcDbText
  0
TEXT
  5
2C2
330
1F
100
AcDbEntity
  8
A
  6
FIN
 62
     4
100
AcDbText
 10
411.2062697722849
 20
5.5
 30
0.0
 40
2.657142857142858
  1
02
 41
0.9659999561309813
  7
ARIAL
 72
     2
 11
415.0
 21
5.5
 31
0.0
100
AcDbText
  0
TEXT
  5
2C3
330
1F
100
AcDbEntity
  8
A
  6
FIN
 62
     7
100
AcDbText
 10
2.0
 20
26.5
 30
0.0
 40
1.992857142857143
  1
=
 41
0.9659999561309813
  7
ARIAL
100
AcDbText
  0
TEXT
  5
2C4
330
1F
100
AcDbEntity
  8
A
  6
FIN
 62
     7
100
AcDbText
 10
2.0
 20
22.0
 30
0.0
 40
1.992857142857143
  1
+
 41
0.9659999561309813
  7
ARIAL
100
AcDbText
  0
TEXT
  5
2C5
330
1F
100
AcDbEntity
  8
B
  6
FIN
 62
     7
100
AcDbText
 10
39.0
 20
16.25
 30
0.0
 40
0.9964285714285714
  1
Tel: (33) 05 45 64 54 54
 41
1.690499923229218
  7
ARIAL
100
AcDbText
  0
TEXT
  5
2C6
330
1F
100
AcDbEntity
  8
B
  6
FIN
 62
     7
100
AcDbText
 10
39.0
 20
13.5
 30
0.0
 40
0.9964285714285714
  1
Fax: (33) 05 45 64 54 00
 41
1.690499923229218
  7
ARIAL
100
AcDbText
  0
TEXT
  5
2C7
330
1F
100
AcDbEntity
  8
B
  6
FIN
 62
     7
100
AcDbText
 10
39.0
 20
10.5
 30
0.0
 40
0.9964285714285714
  1
Telex:  790244 F
 41
1.690499923229218
  7
ARIAL
100
AcDbText
  0
TEXT
  5
2C8
330
1F
100
AcDbEntity
  8
B
  6
FIN
 62
     7
100
AcDbText
 10
39.0
 20
7.5
 30
0.0
 40
0.9964285714285714
  1
www.leroy-somer.com
 41
1.690499923229218
  7
ARIAL
100
AcDbText
  0
TEXT
  5
2C9
330
1F
100
AcDbEntity
  8
B
  6
FIN
 62
     7
100
AcDbText
 10
417.75
 20
21.0
 30
0.0
 40
0.9964285714285714
  1
Ce plan est la propriété de MOTEURS LEROY SOMER et ne peut être reproduit ni communiqué à des tiers sans l'autorisation écrite de MOTEURS LEROY SOMER
 50
90.0
 41
1.207499945163727
  7
ARIAL
100
AcDbText
  0
TEXT
  5
2CA
330
1F
100
AcDbEntity
  8
B
  6
FIN
 62
     1
100
AcDbText
 10
99.0
 20
4.341258525848389
 30
0.0
 40
1.328571428571429
  1
DESSINE :
 41
0.9659999561309813
  7
ARIAL
100
AcDbText
  0
TEXT
  5
2CB
330
1F
100
AcDbEntity
  8
B
  6
FIN
 62
     7
100
AcDbText
 10
417.75
 20
231.4116947456529
 30
0.0
 40
0.9964285714285714
  1
Q:\BEEQUIPEMENTS\SEE\DOSSIERS\Z_MARKETING\DWG_SYMBOLE_18012010\
 50
90.0
 41
1.207499945163727
  7
ARIAL
 72
     2
 11
417.75
 21
296.0
 31
0.0
100
AcDbText
  0
INSERT
  5
343
330
1F
100
AcDbEntity
  8
A
  6
FIN
 62
     0
100
AcDbBlockReference
 66
     1
  2
_VARMECA20_VARIATEUR_0_5_0
 10
60.0
 20
170.0
 30
0.0
  0
ATTRIB
  5
344
330
343
100
AcDbEntity
  8
B
  6
FIN
 62
     4
100
AcDbText
 10
60.0
 20
134.8375038146973
 30
0.0
 40
2.325
  1
FAB: LEROY SOMER
 41
0.9659999561309813
  7
ARIAL
 11
60.0
 21
136.0000038146973
 31
0.0
100
AcDbAttribute
  2
FAB
 70
     0
 74
     2
  0
ATTRIB
  5
345
330
343
100
AcDbEntity
  8
B
  6
FIN
 62
     4
100
AcDbText
 10
60.0
 20
130.8374980926514
 30
0.0
 40
2.325
  1
TYPE: VARMECA 20
 41
0.9659999561309813
  7
ARIAL
 11
60.0
 21
131.9999980926514
 31
0.0
100
AcDbAttribute
  2
TYPE
 70
     0
 74
     2
  0
ATTRIB
  5
346
330
343
100
AcDbEntity
  8
A
  6
FIN
 62
     3
100
AcDbText
 10
60.0
 20
141.5053590502058
 30
0.0
 40
2.989285714285714
  1
-A4
 41
0.9659999561309813
  7
ARIAL
 11
60.0
 21
143.0000019073486
 31
0.0
100
AcDbAttribute
  2
$ETIQUETTE
 70
     0
 74
     2
  0
ATTRIB
  5
347
330
343
100
AcDbEntity
  8
A
  6
FIN
 62
     1
100
AcDbText
 10
58.65435516110986
 20
164.4995876216343
 30
0.0
 40
1.992857142857143
  1
L1
 41
0.9659999561309813
  7
ARIAL
 72
     4
 11
60.0
 21
165.5000019073486
 31
0.0
100
AcDbAttribute
  2
$PL:1
 70
     0
 74
     2
  0
ATTRIB
  5
348
330
343
100
AcDbEntity
  8
A
  6
FIN
 62
     1
100
AcDbText
 10
88.17596783283489
 20
119.5035733359201
 30
0.0
 40
1.992857142857143
  1
PE
 41
0.9659999561309813
  7
ARIAL
 72
     4
 11
90.0
 21
120.5000019073486
 31
0.0
100
AcDbAttribute
  2
$PL:10
 70
     1
 74
     2
  0
ATTRIB
  5
349
330
343
100
AcDbEntity
  8
A
  6
FIN
 62
     1
100
AcDbText
 10
216.761019397092
 20
119.5165269073486
 30
0.0
 40
1.992857142857143
  1
+10V
 41
0.9659999561309813
  7
ARIAL
 72
     4
 11
220.0
 21
120.5000019073486
 31
0.0
100
AcDbAttribute
  2
$PL:11
 70
     0
 74
     2
  0
ATTRIB
  5
34A
330
343
100
AcDbEntity
  8
A
  6
FIN
 62
     1
100
AcDbText
 10
233.8516779021488
 20
119.5035733359201
 30
0.0
 40
1.992857142857143
  1
AI
 41
0.9659999561309813
  7
ARIAL
 72
     4
 11
235.0
 21
120.5000019073486
 31
0.0
100
AcDbAttribute
  2
$PL:12
 70
     0
 74
     2
  0
ATTRIB
  5
34B
330
343
100
AcDbEntity
  8
A
  6
FIN
 62
     1
100
AcDbText
 10
248.5404356982047
 20
119.5165269073486
 30
0.0
 40
1.992857142857143
  1
0V
 41
0.9659999561309813
  7
ARIAL
 72
     4
 11
250.2287483215332
 21
120.5000019073486
 31
0.0
100
AcDbAttribute
  2
$PL:13
 70
     0
 74
     2
  0
ATTRIB
  5
34C
330
343
100
AcDbEntity
  8
A
  6
FIN
 62
     1
100
AcDbText
 10
263.1191773854139
 20
119.5035733359201
 30
0.0
 40
1.992857142857143
  1
AO
 41
0.9659999561309813
  7
ARIAL
 72
     4
 11
265.0
 21
120.5000019073486
 31
0.0
100
AcDbAttribute
  2
$PL:14
 70
     0
 74
     2
  0
ATTRIB
  5
34D
330
343
100
AcDbEntity
  8
A
  6
FIN
 62
     1
100
AcDbText
 10
186.761019397092
 20
164.4995876216343
 30
0.0
 40
1.992857142857143
  1
+24V
 41
0.9659999561309813
  7
ARIAL
 72
     4
 11
190.0
 21
165.5000019073486
 31
0.0
100
AcDbAttribute
  2
$PL:15
 70
     0
 74
     2
  0
ATTRIB
  5
34E
330
343
100
AcDbEntity
  8
A
  6
FIN
 62
     1
100
AcDbText
 10
202.2163055264161
 20
164.5035733359201
 30
0.0
 40
1.992857142857143
  1
ACC
 41
0.9659999561309813
  7
ARIAL
 72
     4
 11
205.0
 21
165.5000019073486
 31
0.0
100
AcDbAttribute
  2
$PL:16
 70
     0
 74
     2
  0
ATTRIB
  5
34F
330
343
100
AcDbEntity
  8
A
  6
FIN
 62
     1
100
AcDbText
 10
217.9719072421019
 20
164.5035733359201
 30
0.0
 40
1.992857142857143
  1
RR
 41
0.9659999561309813
  7
ARIAL
 72
     4
 11
220.0
 21
165.5000019073486
 31
0.0
100
AcDbAttribute
  2
$PL:17
 70
     0
 74
     2
  0
ATTRIB
  5
350
330
343
100
AcDbEntity
  8
A
  6
FIN
 62
     1
100
AcDbText
 10
233.1644172333594
 20
164.5035733359201
 30
0.0
 40
1.992857142857143
  1
RF
 41
0.9659999561309813
  7
ARIAL
 72
     4
 11
235.0
 21
165.5000019073486
 31
0.0
100
AcDbAttribute
  2
$PL:18
 70
     0
 74
     2
  0
ATTRIB
  5
351
330
343
100
AcDbEntity
  8
A
  6
FIN
 62
     1
100
AcDbText
 10
246.761019397092
 20
164.4995876216343
 30
0.0
 40
1.992857142857143
  1
+24V
 41
0.9659999561309813
  7
ARIAL
 72
     4
 11
250.0
 21
165.5000019073486
 31
0.0
100
AcDbAttribute
  2
$PL:19
 70
     0
 74
     2
  0
ATTRIB
  5
352
330
343
100
AcDbEntity
  8
A
  6
FIN
 62
     1
100
AcDbText
 10
68.4791710690655
 20
164.4995876216343
 30
0.0
 40
1.992857142857143
  1
L2
 41
0.9659999561309813
  7
ARIAL
 72
     4
 11
70.0
 21
165.5000019073486
 31
0.0
100
AcDbAttribute
  2
$PL:2
 70
     0
 74
     2
  0
ATTRIB
  5
353
330
343
100
AcDbEntity
  8
A
  6
FIN
 62
     1
100
AcDbText
 10
262.1296760303502
 20
164.5035733359201
 30
0.0
 40
1.992857142857143
  1
ENA
 41
0.9659999561309813
  7
ARIAL
 72
     4
 11
265.0
 21
165.5000019073486
 31
0.0
100
AcDbAttribute
  2
$PL:20
 70
     0
 74
     2
  0
ATTRIB
  5
354
330
343
100
AcDbEntity
  8
A
  6
FIN
 62
     1
100
AcDbText
 10
102.9668538548314
 20
164.4995876216343
 30
0.0
 40
1.992857142857143
  1
RL1
 41
0.8452499616146088
  7
ARIAL
 72
     4
 11
105.0
 21
165.5000019073486
 31
0.0
100
AcDbAttribute
  2
$PL:21
 70
     0
 74
     2
  0
ATTRIB
  5
355
330
343
100
AcDbEntity
  8
A
  6
FIN
 62
     1
100
AcDbText
 10
112.8135677742926
 20
164.4995876216343
 30
0.0
 40
1.992857142857143
  1
RL2
 41
0.8452499616146088
  7
ARIAL
 72
     4
 11
115.0
 21
165.5000019073486
 31
0.0
100
AcDbAttribute
  2
$PL:22
 70
     0
 74
     2
  0
ATTRIB
  5
356
330
343
100
AcDbEntity
  8
B
  6
FIN
 62
     1
100
AcDbText
 10
261.8120345447753
 20
134.0205107142857
 30
0.0
 40
1.992857142857143
  1
RJ45
 41
0.9659999561309813
  7
ARIAL
 72
     4
 11
265.0
 21
135.0
 31
0.0
100
AcDbAttribute
  2
$PL:23
 70
     0
 74
     2
  0
ATTRIB
  5
357
330
343
100
AcDbEntity
  8
A
  6
FIN
 62
     1
100
AcDbText
 10
78.46858301954634
 20
164.5165269073486
 30
0.0
 40
1.992857142857143
  1
L3
 41
0.9659999561309813
  7
ARIAL
 72
     4
 11
80.0
 21
165.5000019073486
 31
0.0
100
AcDbAttribute
  2
$PL:3
 70
     0
 74
     2
  0
ATTRIB
  5
358
330
343
100
AcDbEntity
  8
A
  6
FIN
 62
     1
100
AcDbText
 10
88.17597736957805
 20
164.5035733359201
 30
0.0
 40
1.992857142857143
  1
PE
 41
0.9659999561309813
  7
ARIAL
 72
     4
 11
90.00000953674316
 21
165.5000019073486
 31
0.0
100
AcDbAttribute
  2
$PL:4
 70
     1
 74
     2
  0
ATTRIB
  5
359
330
343
100
AcDbEntity
  8
A
  6
FIN
 62
     1
100
AcDbText
 10
48.74999046325684
 20
129.5035733359201
 30
0.0
 40
1.992857142857143
  1
R2
 41
0.9659999561309813
  7
ARIAL
 11
48.74999046325684
 21
130.5000019073486
 31
0.0
100
AcDbAttribute
  2
$PL:5
 70
     0
 74
     2
  0
ATTRIB
  5
35A
330
343
100
AcDbEntity
  8
A
  6
FIN
 62
     1
100
AcDbText
 10
48.75
 20
139.5035733359201
 30
0.0
 40
1.992857142857143
  1
R1
 41
0.9659999561309813
  7
ARIAL
 11
48.75
 21
140.5000019073486
 31
0.0
100
AcDbAttribute
  2
$PL:6
 70
     0
 74
     2
  0
ATTRIB
  5
35B
330
343
100
AcDbEntity
  8
A
  6
FIN
 62
     1
100
AcDbText
 10
59.03167474397462
 20
119.5205126216344
 30
0.0
 40
1.992857142857143
  1
U
 41
0.9659999561309813
  7
ARIAL
 72
     4
 11
60.0
 21
120.5000019073486
 31
0.0
100
AcDbAttribute
  2
$PL:7
 70
     0
 74
     2
  0
ATTRIB
  5
35C
330
343
100
AcDbEntity
  8
A
  6
FIN
 62
     1
100
AcDbText
 10
69.10867874047763
 20
119.5035733359201
 30
0.0
 40
1.992857142857143
  1
V
 41
0.9659999561309813
  7
ARIAL
 72
     4
 11
70.0
 21
120.5000019073486
 31
0.0
100
AcDbAttribute
  2
$PL:8
 70
     0
 74
     2
  0
ATTRIB
  5
35D
330
343
100
AcDbEntity
  8
A
  6
FIN
 62
     1
100
AcDbText
 10
78.73039660765659
 20
119.5035733359201
 30
0.0
 40
1.992857142857143
  1
W
 41
0.9659999561309813
  7
ARIAL
 72
     4
 11
80.0
 21
120.5000019073486
 31
0.0
100
AcDbAttribute
  2
$PL:9
 70
     0
 74
     2
  0
ATTRIB
  5
35E
330
343
100
AcDbEntity
  8
A
  6
FIN
 62
     1
100
AcDbText
 10
60.0
 20
122.8374961853027
 30
0.0
 40
2.325
  1
@6023_LS.@62
 41
0.9659999561309813
  7
ARIAL
 11
60.0
 21
123.9999961853027
 31
0.0
100
AcDbAttribute
  2
SYMBOLE
 70
     1
 74
     2
  0
SEQEND
  5
35F
330
343
100
AcDbEntity
  8
A
  6
FIN
 62
     0
  0
ENDSEC
  0
SECTION
  2
OBJECTS
  0
DICTIONARY
  5
C
330
0
100
AcDbDictionary
  3
ACAD_GROUP
350
D
  3
ACAD_LAYOUT
350
1A
  3
ACAD_MLINESTYLE
350
17
  3
ACAD_PLOTSETTINGS
350
19
  3
ACDBHEADERROUNDTRIPXREC
350
360
  0
DICTIONARY
  5
380
330
29
100
AcDbDictionary
280
     1
  3
ACAD_XREC_ROUNDTRIP
360
381
  0
DICTIONARY
  5
D
102
{ACAD_REACTORS
330
C
102
}
330
C
100
AcDbDictionary
  0
DICTIONARY
  5
1A
102
{ACAD_REACTORS
330
C
102
}
330
C
100
AcDbDictionary
  0
DICTIONARY
  5
17
102
{ACAD_REACTORS
330
C
102
}
330
C
100
AcDbDictionary
  3
STANDARD
350
18
  0
DICTIONARY
  5
19
102
{ACAD_REACTORS
330
C
102
}
330
C
100
AcDbDictionary
  0
DICTIONARY
  5
360
102
{ACAD_REACTORS
330
C
102
}
330
C
100
AcDbDictionary
  3
CEPSNTYPE
350
369
  3
DIMSTYLEDATA
350
37F
  3
FINGERPRINTGUID
350
36A
  3
HYPERLINKBASE
350
363
  3
INSUNITS
350
368
  3
LAYOUTDICT
350
365
  3
LWETCUNION
350
367
  3
PLOTSETDICT
350
366
  3
PSVPSCALE
350
36C
  3
PUCSBASE
350
36F
  3
PUCSORGBACK
350
375
  3
PUCSORGBOTTOM
350
371
  3
PUCSORGFRONT
350
374
  3
PUCSORGLEFT
350
372
  3
PUCSORGRIGHT
350
373
  3
PUCSORGTOP
350
370
  3
PUCSORTHOREF
350
36D
  3
PUCSORTHOVIEW
350
36E
  3
STYLESHEET
350
364
  3
TSTACKALIGN
350
361
  3
TSTACKSIZE
350
362
  3
UCSBASE
350
378
  3
UCSORGBACK
350
37E
  3
UCSORGBOTTOM
350
37A
  3
UCSORGFRONT
350
37D
  3
UCSORGLEFT
350
37B
  3
UCSORGRIGHT
350
37C
  3
UCSORGTOP
350
379
  3
UCSORTHOREF
350
376
  3
UCSORTHOVIEW
350
377
  3
VERSIONGUID
350
36B
  0
XRECORD
  5
381
102
{ACAD_REACTORS
330
380
102
}
330
380
100
AcDbXrecord
102
UCS
 74
     0
 71
     1
 10
0.0
 20
0.0
 30
0.0
 10
1.0
 20
0.0
 30
0.0
 10
0.0
 20
1.0
 30
0.0
146
0.0
 79
     0
102
VIEW
281
     0
  0
MLINESTYLE
  5
18
102
{ACAD_REACTORS
330
17
102
}
330
17
100
AcDbMlineStyle
  2
Standard
 70
     0
  3

 62
   256
 51
90.0
 52
90.0
 71
     2
 49
0.5
 62
   256
  6
BYLAYER
 49
-0.5
 62
   256
  6
BYLAYER
  0
XRECORD
  5
369
102
{ACAD_REACTORS
330
360
102
}
330
360
100
AcDbXrecord
 90
        0
  0
XRECORD
  5
37F
102
{ACAD_REACTORS
330
360
102
}
330
360
100
AcDbXrecord
1000
DSTYLE
1002
{
1070
   340
340
11
1002
}
  0
XRECORD
  5
36A
102
{ACAD_REACTORS
330
360
102
}
330
360
100
AcDbXrecord
  1
{C0D61FB6-6C5C-4C52-832D-5C750B9B8E2B}
  0
XRECORD
  5
363
102
{ACAD_REACTORS
330
360
102
}
330
360
100
AcDbXrecord
  1

  0
XRECORD
  5
368
102
{ACAD_REACTORS
330
360
102
}
330
360
100
AcDbXrecord
 90
        0
  0
XRECORD
  5
365
102
{ACAD_REACTORS
330
360
102
}
330
360
100
AcDbXrecord
340
1A
  0
XRECORD
  5
367
102
{ACAD_REACTORS
330
360
102
}
330
360
100
AcDbXrecord
 90
    10781
  0
XRECORD
  5
366
102
{ACAD_REACTORS
330
360
102
}
330
360
100
AcDbXrecord
340
19
  0
XRECORD
  5
36C
102
{ACAD_REACTORS
330
360
102
}
330
360
100
AcDbXrecord
 40
0.0
  0
XRECORD
  5
36F
102
{ACAD_REACTORS
330
360
102
}
330
360
100
AcDbXrecord
340
0
  0
XRECORD
  5
375
102
{ACAD_REACTORS
330
360
102
}
330
360
100
AcDbXrecord
 10
0.0
 20
0.0
 30
0.0
  0
XRECORD
  5
371
102
{ACAD_REACTORS
330
360
102
}
330
360
100
AcDbXrecord
 10
0.0
 20
0.0
 30
0.0
  0
XRECORD
  5
374
102
{ACAD_REACTORS
330
360
102
}
330
360
100
AcDbXrecord
 10
0.0
 20
0.0
 30
0.0
  0
XRECORD
  5
372
102
{ACAD_REACTORS
330
360
102
}
330
360
100
AcDbXrecord
 10
0.0
 20
0.0
 30
0.0
  0
XRECORD
  5
373
102
{ACAD_REACTORS
330
360
102
}
330
360
100
AcDbXrecord
 10
0.0
 20
0.0
 30
0.0
  0
XRECORD
  5
370
102
{ACAD_REACTORS
330
360
102
}
330
360
100
AcDbXrecord
 10
0.0
 20
0.0
 30
0.0
  0
XRECORD
  5
36D
102
{ACAD_REACTORS
330
360
102
}
330
360
100
AcDbXrecord
340
0
  0
XRECORD
  5
36E
102
{ACAD_REACTORS
330
360
102
}
330
360
100
AcDbXrecord
 70
     0
  0
XRECORD
  5
364
102
{ACAD_REACTORS
330
360
102
}
330
360
100
AcDbXrecord
  1

  0
XRECORD
  5
361
102
{ACAD_REACTORS
330
360
102
}
330
360
100
AcDbXrecord
 90
        1
  0
XRECORD
  5
362
102
{ACAD_REACTORS
330
360
102
}
330
360
100
AcDbXrecord
 90
       70
  0
XRECORD
  5
378
102
{ACAD_REACTORS
330
360
102
}
330
360
100
AcDbXrecord
340
0
  0
XRECORD
  5
37E
102
{ACAD_REACTORS
330
360
102
}
330
360
100
AcDbXrecord
 10
0.0
 20
0.0
 30
0.0
  0
XRECORD
  5
37A
102
{ACAD_REACTORS
330
360
102
}
330
360
100
AcDbXrecord
 10
0.0
 20
0.0
 30
0.0
  0
XRECORD
  5
37D
102
{ACAD_REACTORS
330
360
102
}
330
360
100
AcDbXrecord
 10
0.0
 20
0.0
 30
0.0
  0
XRECORD
  5
37B
102
{ACAD_REACTORS
330
360
102
}
330
360
100
AcDbXrecord
 10
0.0
 20
0.0
 30
0.0
  0
XRECORD
  5
37C
102
{ACAD_REACTORS
330
360
102
}
330
360
100
AcDbXrecord
 10
0.0
 20
0.0
 30
0.0
  0
XRECORD
  5
379
102
{ACAD_REACTORS
330
360
102
}
330
360
100
AcDbXrecord
 10
0.0
 20
0.0
 30
0.0
  0
XRECORD
  5
376
102
{ACAD_REACTORS
330
360
102
}
330
360
100
AcDbXrecord
340
0
  0
XRECORD
  5
377
102
{ACAD_REACTORS
330
360
102
}
330
360
100
AcDbXrecord
 70
     0
  0
XRECORD
  5
36B
102
{ACAD_REACTORS
330
360
102
}
330
360
100
AcDbXrecord
  1
{FAEB1C32-E019-11D5-929B-00C0DF256EC4}
  0
ENDSEC
  0
EOF
